0
SECTION
2
HEADER
9
$ACADVER
1
AC1004
9
$INSBASE
10
0.0
20
0.0
9
$EXTMIN
10
-10.0
20
-50.0
9
$EXTMAX
10
220.0
20
50.0
9
$LIMMIN
10
-9.184627
20
4.296983
9
$LIMMAX
10
44.815373
20
28.296983
9
$VIEWCTR
10
6.0
20
4.5
9
$VIEWSIZE
40
 9
9
$SNAPMODE
70
 1
9
$SNAPUNIT
10
0.0625
20
0.0625
9
$SNAPBASE
10
0.0
20
0.0
9
$SNAPANG
50
 0
9
$SNAPSTYLE
70
 0
9
$SNAPISOPAIR
70
 0
9
$GRIDMODE
70
 0
9
$GRIDUNIT
10
0.0625
20
0.0625
9
$ORTHOMODE
70
 0
9
$REGENMODE
70
 1
9
$FILLMODE
70
 1
9
$QTEXTMODE
70
 0
9
$DRAGMODE
70
 2
9
$LTSCALE
40
0.44
9
$OSMODE
70
 0
9
$ATTMODE
70
 1
9
$TEXTSIZE
40
0.2
9
$TRACEWID
40
0.05
9
$TEXTSTYLE
7
STANDARD
9
$CLAYER
8
LAYER01
9
$CELTYPE
6
CONTINUOUS
9
$CECOLOR
62
 7
9
$DIMSCALE
40
 1
9
$DIMASZ
40
0.18
9
$DIMEXO
40
0.0625
9
$DIMDLI
40
0.38
9
$DIMRND
40
 0
9
$DIMDLE
40
 0
9
$DIMEXE
40
0.18
9
$DIMTP
40
 0
9
$DIMTM
40
 0
9
$DIMTXT
40
0.18
9
$DIMCEN
40
0.09
9
$DIMTSZ
40
 0
9
$DIMTOL
70
 0
9
$DIMLIM
70
 0
9
$DIMTIH
70
 1
9
$DIMTOH
70
 1
9
$DIMSE1
70
 0
9
$DIMSE2
70
 0
9
$DIMTAD
70
 0
9
$DIMZIN
70
 0
9
$DIMBLK
1

9
$DIMASO
70
 1
9
$DIMSHO
70
 1
9
$DIMPOST
1

9
$DIMAPOST
1

9
$DIMALT
70
 0
9
$DIMALTD
70
 2
9
$DIMALTF
40
25.4
9
$DIMLFAC
40
 1
9
$LUNITS
70
 2
9
$LUPREC
70
 4
9
$AXISMODE
70
 0
9
$AXISUNIT
10
0.0
20
0.0
9
$SKETCHINC
40
0.1
9
$FILLETRAD
40
0.125
9
$AUNITS
70
 0
9
$AUPREC
70
 0
9
$MENU
1
acad
9
$ELEVATION
40
 0
9
$THICKNESS
40
 0
9
$VIEWDIR
10
0.0
20
0.0
30
1.0
9
$LIMCHECK
70
 0
9
$BLIPMODE
70
 1
9
$CHAMFERA
40
0.5
9
$CHAMFERB
40
0.5
9
$FASTZOOM
70
 1
9
$SKPOLY
70
 0
9
$TDCREATE
40
 0
9
$TDUPDATE
40
 0
9
$TDINDWG
40
 0
9
$TDUSRTIMER
40
 0
9
$USRTIMER
70
 1
9
$ANGBASE
50
 0
9
$ANGDIR
70
 0
9
$PDMODE
70
 0
9
$PDSIZE
40
 0
9
$PLINEWID
40
0.008
9
$COORDS
70
 2
9
$SPLFRAME
70
 0
9
$SPLINESEGS
70
 10
9
$ATTDIA
70
 0
9
$ATTREQ
70
 1
9
$USERI1
70
 0
9
$USERI2
70
 0
9
$USERI3
70
 0
9
$USERI4
70
 0
9
$USERI5
70
 0
9
$USERR1
40
 0
9
$USERR2
40
 0
9
$USERR3
40
 0
9
$USERR4
40
 0
9
$USERR5
40
 0
0
ENDSEC
0
SECTION
2
TABLES
0
TABLE
2
VPORT
5
 10
100
AcDbSymbolTable
70
 10
0
VPORT
5
 11
100
AcDbSymbolTableRecord
100
AcDbViewportTableRecord
2
*ACTIVE
70
 0
10
0.0
20
0.0
11
2.0
21
2.0
12
0.0
22
0.0
13
0.0
23
0.0
14
0.0
24
0.0
15
0.0
25
0.0
16
0.0
26
0.0
36
0.0
17
0.0
27
0.0
37
0.0
40
0.0
41
0.0
42
0.0
43
0.0
44
0.0
50
0.0
51
0.0
71
 0
72
 0
73
 0
74
 0
75
 0
76
 0
77
 0
78
 0
0
ENDTAB
0
TABLE
2
LTYPE
5
 50
100
AcDbSymbolTable
70
10
0
LTYPE
5
 100
100
AcDbSymbolTableRecord
100
AcDbLinetypeTableRecord
2
CONT
70
 0
3
Solid Line __________
72
 65
73
 0
40
0.0
0
LTYPE
5
 101
100
AcDbSymbolTableRecord
100
AcDbLinetypeTableRecord
2
HIDDEN
70
 0
3
Cache __ __ __ __ __ __ __
72
 65
73
 2
40
9.525
49
6.35
49
-3.175
0
LTYPE
5
 102
100
AcDbSymbolTableRecord
100
AcDbLinetypeTableRecord
2
AXIS
70
 0
3
Centre ____ _ ____ _ ____
72
 65
73
 4
40
50.8
49
31.75
49
-6.35
49
6.35
49
-6.35
0
ENDTAB
0
TABLE
2
LAYER
5
 25
100
AcDbSymbolTable
70
10
0
LAYER
5
 30
100
AcDbSymbolTableRecord
100
AcDbLayerTableRecord
2
Layer01
70
 0
62
 7
6
CONT
0
LAYER
5
 31
100
AcDbSymbolTableRecord
100
AcDbLayerTableRecord
2
TALON
70
 0
62
 10
6
CONT
0
LAYER
5
 32
100
AcDbSymbolTableRecord
100
AcDbLayerTableRecord
2
AXIS
70
 0
62
 10
6
AXIS
0
LAYER
5
 33
100
AcDbSymbolTableRecord
100
AcDbLayerTableRecord
2
COFFR
70
 0
62
 180
6
CONT
0
LAYER
5
 34
100
AcDbSymbolTableRecord
100
AcDbLayerTableRecord
2
LONG
70
 0
62
 210
6
CONT
0
LAYER
5
 35
100
AcDbSymbolTableRecord
100
AcDbLayerTableRecord
2
TROU
70
 0
62
 195
6
CONT
0
ENDTAB
0
ENDSEC
0
SECTION
2
ENTITIES
0
POLYLINE
5
 501
100
AcDbEntity
8
Layer01
66
 1
100
AcDb2dPolyline
70
 0
0
VERTEX
100
AcDbVertex
100
AcDb2dVertex
8
Layer01
10
533.0
20
0.0
30
0.0
0
VERTEX
100
AcDbVertex
100
AcDb2dVertex
8
Layer01
10
532.467007
20
1.492052
30
0.0
0
VERTEX
100
AcDbVertex
100
AcDb2dVertex
8
Layer01
10
531.934014
20
2.756708
30
0.0
0
VERTEX
100
AcDbVertex
100
AcDb2dVertex
8
Layer01
10
531.401021
20
3.820263
30
0.0
0
VERTEX
100
AcDbVertex
100
AcDb2dVertex
8
Layer01
10
530.868027
20
4.707074
30
0.0
0
VERTEX
100
AcDbVertex
100
AcDb2dVertex
8
Layer01
10
530.335034
20
5.439632
30
0.0
0
VERTEX
100
AcDbVertex
100
AcDb2dVertex
8
Layer01
10
529.802041
20
6.038635
30
0.0
0
VERTEX
100
AcDbVertex
100
AcDb2dVertex
8
Layer01
10
529.269048
20
6.523048
30
0.0
0
VERTEX
100
AcDbVertex
100
AcDb2dVertex
8
Layer01
10
528.736055
20
6.910183
30
0.0
0
VERTEX
100
AcDbVertex
100
AcDb2dVertex
8
Layer01
10
528.203062
20
7.21576
30
0.0
0
VERTEX
100
AcDbVertex
100
AcDb2dVertex
8
Layer01
10
527.670069
20
7.453978
30
0.0
0
VERTEX
100
AcDbVertex
100
AcDb2dVertex
8
Layer01
10
527.137012
20
7.637606
30
0.0
0
VERTEX
100
AcDbVertex
100
AcDb2dVertex
8
Layer01
10
526.604019
20
7.777969
30
0.0
0
VERTEX
100
AcDbVertex
100
AcDb2dVertex
8
Layer01
10
526.071026
20
7.885144
30
0.0
0
VERTEX
100
AcDbVertex
100
AcDb2dVertex
8
Layer01
10
525.538033
20
7.967944
30
0.0
0
VERTEX
100
AcDbVertex
100
AcDb2dVertex
8
Layer01
10
525.005039
20
8.034004
30
0.0
0
VERTEX
100
AcDbVertex
100
AcDb2dVertex
8
Layer01
10
524.472046
20
8.089855
30
0.0
0
VERTEX
100
AcDbVertex
100
AcDb2dVertex
8
Layer01
10
523.939053
20
8.14099
30
0.0
0
VERTEX
100
AcDbVertex
100
AcDb2dVertex
8
Layer01
10
523.40606
20
8.191938
30
0.0
0
VERTEX
100
AcDbVertex
100
AcDb2dVertex
8
Layer01
10
522.873067
20
8.246326
30
0.0
0
VERTEX
100
AcDbVertex
100
AcDb2dVertex
8
Layer01
10
522.340074
20
8.306956
30
0.0
0
VERTEX
100
AcDbVertex
100
AcDb2dVertex
8
Layer01
10
521.807017
20
8.375876
30
0.0
0
VERTEX
100
AcDbVertex
100
AcDb2dVertex
8
Layer01
10
521.274024
20
8.454419
30
0.0
0
VERTEX
100
AcDbVertex
100
AcDb2dVertex
8
Layer01
10
520.741031
20
8.543322
30
0.0
0
VERTEX
100
AcDbVertex
100
AcDb2dVertex
8
Layer01
10
520.208038
20
8.642759
30
0.0
0
VERTEX
100
AcDbVertex
100
AcDb2dVertex
8
Layer01
10
519.675044
20
8.752423
30
0.0
0
VERTEX
100
AcDbVertex
100
AcDb2dVertex
8
Layer01
10
519.142051
20
8.871592
30
0.0
0
VERTEX
100
AcDbVertex
100
AcDb2dVertex
8
Layer01
10
518.609058
20
8.999198
30
0.0
0
VERTEX
100
AcDbVertex
100
AcDb2dVertex
8
Layer01
10
518.076065
20
9.133899
30
0.0
0
VERTEX
100
AcDbVertex
100
AcDb2dVertex
8
Layer01
10
517.543072
20
9.274145
30
0.0
0
VERTEX
100
AcDbVertex
100
AcDb2dVertex
8
Layer01
10
517.010079
20
9.418248
30
0.0
0
VERTEX
100
AcDbVertex
100
AcDb2dVertex
8
Layer01
10
516.477022
20
9.541715
30
0.0
0
VERTEX
100
AcDbVertex
100
AcDb2dVertex
8
Layer01
10
515.944029
20
9.66722
30
0.0
0
VERTEX
100
AcDbVertex
100
AcDb2dVertex
8
Layer01
10
515.411036
20
9.794737
30
0.0
0
VERTEX
100
AcDbVertex
100
AcDb2dVertex
8
Layer01
10
514.878043
20
9.924223
30
0.0
0
VERTEX
100
AcDbVertex
100
AcDb2dVertex
8
Layer01
10
514.34505
20
10.055633
30
0.0
0
VERTEX
100
AcDbVertex
100
AcDb2dVertex
8
Layer01
10
513.812056
20
10.188925
30
0.0
0
VERTEX
100
AcDbVertex
100
AcDb2dVertex
8
Layer01
10
513.279063
20
10.324059
30
0.0
0
VERTEX
100
AcDbVertex
100
AcDb2dVertex
8
Layer01
10
512.74607
20
10.460991
30
0.0
0
VERTEX
100
AcDbVertex
100
AcDb2dVertex
8
Layer01
10
512.213077
20
10.59968
30
0.0
0
VERTEX
100
AcDbVertex
100
AcDb2dVertex
8
Layer01
10
511.680084
20
10.740088
30
0.0
0
VERTEX
100
AcDbVertex
100
AcDb2dVertex
8
Layer01
10
511.146995
20
10.882197
30
0.0
0
VERTEX
100
AcDbVertex
100
AcDb2dVertex
8
Layer01
10
510.614002
20
11.02592
30
0.0
0
VERTEX
100
AcDbVertex
100
AcDb2dVertex
8
Layer01
10
510.081009
20
11.171241
30
0.0
0
VERTEX
100
AcDbVertex
100
AcDb2dVertex
8
Layer01
10
509.548016
20
11.318123
30
0.0
0
VERTEX
100
AcDbVertex
100
AcDb2dVertex
8
Layer01
10
509.015023
20
11.466527
30
0.0
0
VERTEX
100
AcDbVertex
100
AcDb2dVertex
8
Layer01
10
508.48203
20
11.616416
30
0.0
0
VERTEX
100
AcDbVertex
100
AcDb2dVertex
8
Layer01
10
507.949037
20
11.767754
30
0.0
0
VERTEX
100
AcDbVertex
100
AcDb2dVertex
8
Layer01
10
507.416043
20
11.920504
30
0.0
0
VERTEX
100
AcDbVertex
100
AcDb2dVertex
8
Layer01
10
506.88305
20
12.074629
30
0.0
0
VERTEX
100
AcDbVertex
100
AcDb2dVertex
8
Layer01
10
506.350057
20
12.230095
30
0.0
0
VERTEX
100
AcDbVertex
100
AcDb2dVertex
8
Layer01
10
505.817001
20
12.386885
30
0.0
0
VERTEX
100
AcDbVertex
100
AcDb2dVertex
8
Layer01
10
505.284007
20
12.544928
30
0.0
0
VERTEX
100
AcDbVertex
100
AcDb2dVertex
8
Layer01
10
504.751014
20
12.704207
30
0.0
0
VERTEX
100
AcDbVertex
100
AcDb2dVertex
8
Layer01
10
504.218021
20
12.864688
30
0.0
0
VERTEX
100
AcDbVertex
100
AcDb2dVertex
8
Layer01
10
503.685028
20
13.026339
30
0.0
0
VERTEX
100
AcDbVertex
100
AcDb2dVertex
8
Layer01
10
503.152035
20
13.189126
30
0.0
0
VERTEX
100
AcDbVertex
100
AcDb2dVertex
8
Layer01
10
502.619042
20
13.353017
30
0.0
0
VERTEX
100
AcDbVertex
100
AcDb2dVertex
8
Layer01
10
502.086049
20
13.517981
30
0.0
0
VERTEX
100
AcDbVertex
100
AcDb2dVertex
8
Layer01
10
501.553055
20
13.683985
30
0.0
0
VERTEX
100
AcDbVertex
100
AcDb2dVertex
8
Layer01
10
501.020062
20
13.850998
30
0.0
0
VERTEX
100
AcDbVertex
100
AcDb2dVertex
8
Layer01
10
500.487006
20
14.01901
30
0.0
0
VERTEX
100
AcDbVertex
100
AcDb2dVertex
8
Layer01
10
499.954012
20
14.187951
30
0.0
0
VERTEX
100
AcDbVertex
100
AcDb2dVertex
8
Layer01
10
499.421019
20
14.357811
30
0.0
0
VERTEX
100
AcDbVertex
100
AcDb2dVertex
8
Layer01
10
498.888026
20
14.528562
30
0.0
0
VERTEX
100
AcDbVertex
100
AcDb2dVertex
8
Layer01
10
498.355033
20
14.700174
30
0.0
0
VERTEX
100
AcDbVertex
100
AcDb2dVertex
8
Layer01
10
497.82204
20
14.87262
30
0.0
0
VERTEX
100
AcDbVertex
100
AcDb2dVertex
8
Layer01
10
497.289047
20
15.045871
30
0.0
0
VERTEX
100
AcDbVertex
100
AcDb2dVertex
8
Layer01
10
496.756054
20
15.219901
30
0.0
0
VERTEX
100
AcDbVertex
100
AcDb2dVertex
8
Layer01
10
496.22306
20
15.394681
30
0.0
0
VERTEX
100
AcDbVertex
100
AcDb2dVertex
8
Layer01
10
495.690067
20
15.570187
30
0.0
0
VERTEX
100
AcDbVertex
100
AcDb2dVertex
8
Layer01
10
495.157011
20
15.746413
30
0.0
0
VERTEX
100
AcDbVertex
100
AcDb2dVertex
8
Layer01
10
494.624018
20
15.923291
30
0.0
0
VERTEX
100
AcDbVertex
100
AcDb2dVertex
8
Layer01
10
494.091024
20
16.100817
30
0.0
0
VERTEX
100
AcDbVertex
100
AcDb2dVertex
8
Layer01
10
493.558031
20
16.278965
30
0.0
0
VERTEX
100
AcDbVertex
100
AcDb2dVertex
8
Layer01
10
493.025038
20
16.45771
30
0.0
0
VERTEX
100
AcDbVertex
100
AcDb2dVertex
8
Layer01
10
492.492045
20
16.637029
30
0.0
0
VERTEX
100
AcDbVertex
100
AcDb2dVertex
8
Layer01
10
491.959052
20
16.816898
30
0.0
0
VERTEX
100
AcDbVertex
100
AcDb2dVertex
8
Layer01
10
491.426059
20
16.997294
30
0.0
0
VERTEX
100
AcDbVertex
100
AcDb2dVertex
8
Layer01
10
490.893066
20
17.178192
30
0.0
0
VERTEX
100
AcDbVertex
100
AcDb2dVertex
8
Layer01
10
490.360072
20
17.359572
30
0.0
0
VERTEX
100
AcDbVertex
100
AcDb2dVertex
8
Layer01
10
489.827016
20
17.541431
30
0.0
0
VERTEX
100
AcDbVertex
100
AcDb2dVertex
8
Layer01
10
489.294023
20
17.723705
30
0.0
0
VERTEX
100
AcDbVertex
100
AcDb2dVertex
8
Layer01
10
488.761029
20
17.906395
30
0.0
0
VERTEX
100
AcDbVertex
100
AcDb2dVertex
8
Layer01
10
488.228036
20
18.08948
30
0.0
0
VERTEX
100
AcDbVertex
100
AcDb2dVertex
8
Layer01
10
487.695043
20
18.272939
30
0.0
0
VERTEX
100
AcDbVertex
100
AcDb2dVertex
8
Layer01
10
487.16205
20
18.456754
30
0.0
0
VERTEX
100
AcDbVertex
100
AcDb2dVertex
8
Layer01
10
486.629057
20
18.640903
30
0.0
0
VERTEX
100
AcDbVertex
100
AcDb2dVertex
8
Layer01
10
486.096064
20
18.825368
30
0.0
0
VERTEX
100
AcDbVertex
100
AcDb2dVertex
8
Layer01
10
485.563071
20
19.010129
30
0.0
0
VERTEX
100
AcDbVertex
100
AcDb2dVertex
8
Layer01
10
485.030078
20
19.195169
30
0.0
0
VERTEX
100
AcDbVertex
100
AcDb2dVertex
8
Layer01
10
484.497021
20
19.380491
30
0.0
0
VERTEX
100
AcDbVertex
100
AcDb2dVertex
8
Layer01
10
483.964028
20
19.566033
30
0.0
0
VERTEX
100
AcDbVertex
100
AcDb2dVertex
8
Layer01
10
483.431035
20
19.751799
30
0.0
0
VERTEX
100
AcDbVertex
100
AcDb2dVertex
8
Layer01
10
482.898041
20
19.937773
30
0.0
0
VERTEX
100
AcDbVertex
100
AcDb2dVertex
8
Layer01
10
482.365048
20
20.123937
30
0.0
0
VERTEX
100
AcDbVertex
100
AcDb2dVertex
8
Layer01
10
481.832055
20
20.310274
30
0.0
0
VERTEX
100
AcDbVertex
100
AcDb2dVertex
8
Layer01
10
481.299062
20
20.496769
30
0.0
0
VERTEX
100
AcDbVertex
100
AcDb2dVertex
8
Layer01
10
480.766069
20
20.683406
30
0.0
0
VERTEX
100
AcDbVertex
100
AcDb2dVertex
8
Layer01
10
480.233076
20
20.870169
30
0.0
0
VERTEX
100
AcDbVertex
100
AcDb2dVertex
8
Layer01
10
479.700083
20
21.057042
30
0.0
0
VERTEX
100
AcDbVertex
100
AcDb2dVertex
8
Layer01
10
479.166994
20
21.244047
30
0.0
0
VERTEX
100
AcDbVertex
100
AcDb2dVertex
8
Layer01
10
478.634001
20
21.431099
30
0.0
0
VERTEX
100
AcDbVertex
100
AcDb2dVertex
8
Layer01
10
478.101008
20
21.618218
30
0.0
0
VERTEX
100
AcDbVertex
100
AcDb2dVertex
8
Layer01
10
477.568015
20
21.80539
30
0.0
0
VERTEX
100
AcDbVertex
100
AcDb2dVertex
8
Layer01
10
477.035022
20
21.992601
30
0.0
0
VERTEX
100
AcDbVertex
100
AcDb2dVertex
8
Layer01
10
476.502028
20
22.179838
30
0.0
0
VERTEX
100
AcDbVertex
100
AcDb2dVertex
8
Layer01
10
475.969035
20
22.367088
30
0.0
0
VERTEX
100
AcDbVertex
100
AcDb2dVertex
8
Layer01
10
475.436042
20
22.554338
30
0.0
0
VERTEX
100
AcDbVertex
100
AcDb2dVertex
8
Layer01
10
474.903049
20
22.741575
30
0.0
0
VERTEX
100
AcDbVertex
100
AcDb2dVertex
8
Layer01
10
474.370056
20
22.928788
30
0.0
0
VERTEX
100
AcDbVertex
100
AcDb2dVertex
8
Layer01
10
473.836999
20
23.115983
30
0.0
0
VERTEX
100
AcDbVertex
100
AcDb2dVertex
8
Layer01
10
473.304006
20
23.303109
30
0.0
0
VERTEX
100
AcDbVertex
100
AcDb2dVertex
8
Layer01
10
472.771013
20
23.490177
30
0.0
0
VERTEX
100
AcDbVertex
100
AcDb2dVertex
8
Layer01
10
472.23802
20
23.677175
30
0.0
0
VERTEX
100
AcDbVertex
100
AcDb2dVertex
8
Layer01
10
471.705027
20
23.864094
30
0.0
0
VERTEX
100
AcDbVertex
100
AcDb2dVertex
8
Layer01
10
471.172034
20
24.050925
30
0.0
0
VERTEX
100
AcDbVertex
100
AcDb2dVertex
8
Layer01
10
470.63904
20
24.237656
30
0.0
0
VERTEX
100
AcDbVertex
100
AcDb2dVertex
8
Layer01
10
470.106047
20
24.424279
30
0.0
0
VERTEX
100
AcDbVertex
100
AcDb2dVertex
8
Layer01
10
469.573054
20
24.610785
30
0.0
0
VERTEX
100
AcDbVertex
100
AcDb2dVertex
8
Layer01
10
469.040061
20
24.797164
30
0.0
0
VERTEX
100
AcDbVertex
100
AcDb2dVertex
8
Layer01
10
468.507004
20
24.983434
30
0.0
0
VERTEX
100
AcDbVertex
100
AcDb2dVertex
8
Layer01
10
467.974011
20
25.169538
30
0.0
0
VERTEX
100
AcDbVertex
100
AcDb2dVertex
8
Layer01
10
467.441018
20
25.355491
30
0.0
0
VERTEX
100
AcDbVertex
100
AcDb2dVertex
8
Layer01
10
466.908025
20
25.541284
30
0.0
0
VERTEX
100
AcDbVertex
100
AcDb2dVertex
8
Layer01
10
466.375032
20
25.72691
30
0.0
0
VERTEX
100
AcDbVertex
100
AcDb2dVertex
8
Layer01
10
465.842039
20
25.91236
30
0.0
0
VERTEX
100
AcDbVertex
100
AcDb2dVertex
8
Layer01
10
465.309045
20
26.097628
30
0.0
0
VERTEX
100
AcDbVertex
100
AcDb2dVertex
8
Layer01
10
464.776052
20
26.282707
30
0.0
0
VERTEX
100
AcDbVertex
100
AcDb2dVertex
8
Layer01
10
464.243059
20
26.467589
30
0.0
0
VERTEX
100
AcDbVertex
100
AcDb2dVertex
8
Layer01
10
463.710066
20
26.652269
30
0.0
0
VERTEX
100
AcDbVertex
100
AcDb2dVertex
8
Layer01
10
463.177009
20
26.83676
30
0.0
0
VERTEX
100
AcDbVertex
100
AcDb2dVertex
8
Layer01
10
462.644016
20
27.021014
30
0.0
0
VERTEX
100
AcDbVertex
100
AcDb2dVertex
8
Layer01
10
462.111023
20
27.205047
30
0.0
0
VERTEX
100
AcDbVertex
100
AcDb2dVertex
8
Layer01
10
461.57803
20
27.388855
30
0.0
0
VERTEX
100
AcDbVertex
100
AcDb2dVertex
8
Layer01
10
461.045037
20
27.572432
30
0.0
0
VERTEX
100
AcDbVertex
100
AcDb2dVertex
8
Layer01
10
460.512044
20
27.755773
30
0.0
0
VERTEX
100
AcDbVertex
100
AcDb2dVertex
8
Layer01
10
459.979051
20
27.938875
30
0.0
0
VERTEX
100
AcDbVertex
100
AcDb2dVertex
8
Layer01
10
459.446057
20
28.121731
30
0.0
0
VERTEX
100
AcDbVertex
100
AcDb2dVertex
8
Layer01
10
458.913064
20
28.304339
30
0.0
0
VERTEX
100
AcDbVertex
100
AcDb2dVertex
8
Layer01
10
458.380071
20
28.486694
30
0.0
0
VERTEX
100
AcDbVertex
100
AcDb2dVertex
8
Layer01
10
457.847014
20
28.668815
30
0.0
0
VERTEX
100
AcDbVertex
100
AcDb2dVertex
8
Layer01
10
457.314021
20
28.850655
30
0.0
0
VERTEX
100
AcDbVertex
100
AcDb2dVertex
8
Layer01
10
456.781028
20
29.032231
30
0.0
0
VERTEX
100
AcDbVertex
100
AcDb2dVertex
8
Layer01
10
456.248035
20
29.21354
30
0.0
0
VERTEX
100
AcDbVertex
100
AcDb2dVertex
8
Layer01
10
455.715042
20
29.39458
30
0.0
0
VERTEX
100
AcDbVertex
100
AcDb2dVertex
8
Layer01
10
455.182049
20
29.575347
30
0.0
0
VERTEX
100
AcDbVertex
100
AcDb2dVertex
8
Layer01
10
454.649056
20
29.755839
30
0.0
0
VERTEX
100
AcDbVertex
100
AcDb2dVertex
8
Layer01
10
454.116063
20
29.936053
30
0.0
0
VERTEX
100
AcDbVertex
100
AcDb2dVertex
8
Layer01
10
453.583069
20
30.115988
30
0.0
0
VERTEX
100
AcDbVertex
100
AcDb2dVertex
8
Layer01
10
453.050076
20
30.295641
30
0.0
0
VERTEX
100
AcDbVertex
100
AcDb2dVertex
8
Layer01
10
452.51702
20
30.475031
30
0.0
0
VERTEX
100
AcDbVertex
100
AcDb2dVertex
8
Layer01
10
451.984026
20
30.654115
30
0.0
0
VERTEX
100
AcDbVertex
100
AcDb2dVertex
8
Layer01
10
451.451033
20
30.832913
30
0.0
0
VERTEX
100
AcDbVertex
100
AcDb2dVertex
8
Layer01
10
450.91804
20
31.011422
30
0.0
0
VERTEX
100
AcDbVertex
100
AcDb2dVertex
8
Layer01
10
450.385047
20
31.189643
30
0.0
0
VERTEX
100
AcDbVertex
100
AcDb2dVertex
8
Layer01
10
449.852054
20
31.367574
30
0.0
0
VERTEX
100
AcDbVertex
100
AcDb2dVertex
8
Layer01
10
449.319061
20
31.545215
30
0.0
0
VERTEX
100
AcDbVertex
100
AcDb2dVertex
8
Layer01
10
448.786068
20
31.722566
30
0.0
0
VERTEX
100
AcDbVertex
100
AcDb2dVertex
8
Layer01
10
448.253074
20
31.899625
30
0.0
0
VERTEX
100
AcDbVertex
100
AcDb2dVertex
8
Layer01
10
447.720081
20
32.076393
30
0.0
0
VERTEX
100
AcDbVertex
100
AcDb2dVertex
8
Layer01
10
447.186993
20
32.252901
30
0.0
0
VERTEX
100
AcDbVertex
100
AcDb2dVertex
8
Layer01
10
446.654
20
32.429086
30
0.0
0
VERTEX
100
AcDbVertex
100
AcDb2dVertex
8
Layer01
10
446.121007
20
32.604981
30
0.0
0
VERTEX
100
AcDbVertex
100
AcDb2dVertex
8
Layer01
10
445.588013
20
32.780585
30
0.0
0
VERTEX
100
AcDbVertex
100
AcDb2dVertex
8
Layer01
10
445.05502
20
32.9559
30
0.0
0
VERTEX
100
AcDbVertex
100
AcDb2dVertex
8
Layer01
10
444.522027
20
33.130926
30
0.0
0
VERTEX
100
AcDbVertex
100
AcDb2dVertex
8
Layer01
10
443.989034
20
33.305664
30
0.0
0
VERTEX
100
AcDbVertex
100
AcDb2dVertex
8
Layer01
10
443.456041
20
33.480114
30
0.0
0
VERTEX
100
AcDbVertex
100
AcDb2dVertex
8
Layer01
10
442.923048
20
33.654279
30
0.0
0
VERTEX
100
AcDbVertex
100
AcDb2dVertex
8
Layer01
10
442.390055
20
33.82816
30
0.0
0
VERTEX
100
AcDbVertex
100
AcDb2dVertex
8
Layer01
10
441.856998
20
34.001778
30
0.0
0
VERTEX
100
AcDbVertex
100
AcDb2dVertex
8
Layer01
10
441.324005
20
34.175095
30
0.0
0
VERTEX
100
AcDbVertex
100
AcDb2dVertex
8
Layer01
10
440.791012
20
34.348131
30
0.0
0
VERTEX
100
AcDbVertex
100
AcDb2dVertex
8
Layer01
10
440.258019
20
34.52089
30
0.0
0
VERTEX
100
AcDbVertex
100
AcDb2dVertex
8
Layer01
10
439.725025
20
34.693372
30
0.0
0
VERTEX
100
AcDbVertex
100
AcDb2dVertex
8
Layer01
10
439.192032
20
34.865581
30
0.0
0
VERTEX
100
AcDbVertex
100
AcDb2dVertex
8
Layer01
10
438.659039
20
35.037518
30
0.0
0
VERTEX
100
AcDbVertex
100
AcDb2dVertex
8
Layer01
10
438.126046
20
35.209185
30
0.0
0
VERTEX
100
AcDbVertex
100
AcDb2dVertex
8
Layer01
10
437.593053
20
35.380585
30
0.0
0
VERTEX
100
AcDbVertex
100
AcDb2dVertex
8
Layer01
10
437.06006
20
35.55172
30
0.0
0
VERTEX
100
AcDbVertex
100
AcDb2dVertex
8
Layer01
10
436.527003
20
35.72284
30
0.0
0
VERTEX
100
AcDbVertex
100
AcDb2dVertex
8
Layer01
10
435.99401
20
35.893662
30
0.0
0
VERTEX
100
AcDbVertex
100
AcDb2dVertex
8
Layer01
10
435.461017
20
36.064195
30
0.0
0
VERTEX
100
AcDbVertex
100
AcDb2dVertex
8
Layer01
10
434.928024
20
36.234426
30
0.0
0
VERTEX
100
AcDbVertex
100
AcDb2dVertex
8
Layer01
10
434.39503
20
36.404346
30
0.0
0
VERTEX
100
AcDbVertex
100
AcDb2dVertex
8
Layer01
10
433.862037
20
36.573947
30
0.0
0
VERTEX
100
AcDbVertex
100
AcDb2dVertex
8
Layer01
10
433.329044
20
36.743226
30
0.0
0
VERTEX
100
AcDbVertex
100
AcDb2dVertex
8
Layer01
10
432.796051
20
36.912184
30
0.0
0
VERTEX
100
AcDbVertex
100
AcDb2dVertex
8
Layer01
10
432.263058
20
37.080826
30
0.0
0
VERTEX
100
AcDbVertex
100
AcDb2dVertex
8
Layer01
10
431.730065
20
37.249164
30
0.0
0
VERTEX
100
AcDbVertex
100
AcDb2dVertex
8
Layer01
10
431.197008
20
37.416321
30
0.0
0
VERTEX
100
AcDbVertex
100
AcDb2dVertex
8
Layer01
10
430.664015
20
37.583264
30
0.0
0
VERTEX
100
AcDbVertex
100
AcDb2dVertex
8
Layer01
10
430.131022
20
37.750111
30
0.0
0
VERTEX
100
AcDbVertex
100
AcDb2dVertex
8
Layer01
10
429.598029
20
37.916963
30
0.0
0
VERTEX
100
AcDbVertex
100
AcDb2dVertex
8
Layer01
10
429.065036
20
38.083922
30
0.0
0
VERTEX
100
AcDbVertex
100
AcDb2dVertex
8
Layer01
10
428.532042
20
38.251086
30
0.0
0
VERTEX
100
AcDbVertex
100
AcDb2dVertex
8
Layer01
10
427.999049
20
38.418553
30
0.0
0
VERTEX
100
AcDbVertex
100
AcDb2dVertex
8
Layer01
10
427.466056
20
38.586413
30
0.0
0
VERTEX
100
AcDbVertex
100
AcDb2dVertex
8
Layer01
10
426.933063
20
38.754749
30
0.0
0
VERTEX
100
AcDbVertex
100
AcDb2dVertex
8
Layer01
10
426.40007
20
38.923635
30
0.0
0
VERTEX
100
AcDbVertex
100
AcDb2dVertex
8
Layer01
10
425.867013
20
39.094522
30
0.0
0
VERTEX
100
AcDbVertex
100
AcDb2dVertex
8
Layer01
10
425.33402
20
39.265944
30
0.0
0
VERTEX
100
AcDbVertex
100
AcDb2dVertex
8
Layer01
10
424.801027
20
39.437853
30
0.0
0
VERTEX
100
AcDbVertex
100
AcDb2dVertex
8
Layer01
10
424.268034
20
39.610171
30
0.0
0
VERTEX
100
AcDbVertex
100
AcDb2dVertex
8
Layer01
10
423.735041
20
39.782815
30
0.0
0
VERTEX
100
AcDbVertex
100
AcDb2dVertex
8
Layer01
10
423.202048
20
39.955691
30
0.0
0
VERTEX
100
AcDbVertex
100
AcDb2dVertex
8
Layer01
10
422.669054
20
40.128706
30
0.0
0
VERTEX
100
AcDbVertex
100
AcDb2dVertex
8
Layer01
10
422.136061
20
40.301763
30
0.0
0
VERTEX
100
AcDbVertex
100
AcDb2dVertex
8
Layer01
10
421.603068
20
40.474766
30
0.0
0
VERTEX
100
AcDbVertex
100
AcDb2dVertex
8
Layer01
10
421.070075
20
40.647622
30
0.0
0
VERTEX
100
AcDbVertex
100
AcDb2dVertex
8
Layer01
10
420.537018
20
40.819363
30
0.0
0
VERTEX
100
AcDbVertex
100
AcDb2dVertex
8
Layer01
10
420.004025
20
40.990833
30
0.0
0
VERTEX
100
AcDbVertex
100
AcDb2dVertex
8
Layer01
10
419.471032
20
41.162044
30
0.0
0
VERTEX
100
AcDbVertex
100
AcDb2dVertex
8
Layer01
10
418.938039
20
41.332992
30
0.0
0
VERTEX
100
AcDbVertex
100
AcDb2dVertex
8
Layer01
10
418.405046
20
41.503679
30
0.0
0
VERTEX
100
AcDbVertex
100
AcDb2dVertex
8
Layer01
10
417.872053
20
41.67411
30
0.0
0
VERTEX
100
AcDbVertex
100
AcDb2dVertex
8
Layer01
10
417.339059
20
41.844294
30
0.0
0
VERTEX
100
AcDbVertex
100
AcDb2dVertex
8
Layer01
10
416.806066
20
42.014243
30
0.0
0
VERTEX
100
AcDbVertex
100
AcDb2dVertex
8
Layer01
10
416.273073
20
42.183969
30
0.0
0
VERTEX
100
AcDbVertex
100
AcDb2dVertex
8
Layer01
10
415.74008
20
42.353487
30
0.0
0
VERTEX
100
AcDbVertex
100
AcDb2dVertex
8
Layer01
10
415.206992
20
42.523062
30
0.0
0
VERTEX
100
AcDbVertex
100
AcDb2dVertex
8
Layer01
10
414.673998
20
42.692413
30
0.0
0
VERTEX
100
AcDbVertex
100
AcDb2dVertex
8
Layer01
10
414.141005
20
42.861571
30
0.0
0
VERTEX
100
AcDbVertex
100
AcDb2dVertex
8
Layer01
10
413.608012
20
43.030533
30
0.0
0
VERTEX
100
AcDbVertex
100
AcDb2dVertex
8
Layer01
10
413.075019
20
43.199301
30
0.0
0
VERTEX
100
AcDbVertex
100
AcDb2dVertex
8
Layer01
10
412.542026
20
43.367871
30
0.0
0
VERTEX
100
AcDbVertex
100
AcDb2dVertex
8
Layer01
10
412.009033
20
43.536245
30
0.0
0
VERTEX
100
AcDbVertex
100
AcDb2dVertex
8
Layer01
10
411.47604
20
43.704421
30
0.0
0
VERTEX
100
AcDbVertex
100
AcDb2dVertex
8
Layer01
10
410.943047
20
43.872397
30
0.0
0
VERTEX
100
AcDbVertex
100
AcDb2dVertex
8
Layer01
10
410.410053
20
44.040174
30
0.0
0
VERTEX
100
AcDbVertex
100
AcDb2dVertex
8
Layer01
10
409.876997
20
44.207771
30
0.0
0
VERTEX
100
AcDbVertex
100
AcDb2dVertex
8
Layer01
10
409.344004
20
44.375147
30
0.0
0
VERTEX
100
AcDbVertex
100
AcDb2dVertex
8
Layer01
10
408.81101
20
44.542321
30
0.0
0
VERTEX
100
AcDbVertex
100
AcDb2dVertex
8
Layer01
10
408.278017
20
44.709292
30
0.0
0
VERTEX
100
AcDbVertex
100
AcDb2dVertex
8
Layer01
10
407.745024
20
44.876059
30
0.0
0
VERTEX
100
AcDbVertex
100
AcDb2dVertex
8
Layer01
10
407.212031
20
45.042621
30
0.0
0
VERTEX
100
AcDbVertex
100
AcDb2dVertex
8
Layer01
10
406.679038
20
45.208978
30
0.0
0
VERTEX
100
AcDbVertex
100
AcDb2dVertex
8
Layer01
10
406.146045
20
45.37513
30
0.0
0
VERTEX
100
AcDbVertex
100
AcDb2dVertex
8
Layer01
10
405.613052
20
45.541074
30
0.0
0
VERTEX
100
AcDbVertex
100
AcDb2dVertex
8
Layer01
10
405.080058
20
45.706811
30
0.0
0
VERTEX
100
AcDbVertex
100
AcDb2dVertex
8
Layer01
10
404.547002
20
45.872359
30
0.0
0
VERTEX
100
AcDbVertex
100
AcDb2dVertex
8
Layer01
10
404.014009
20
46.037679
30
0.0
0
VERTEX
100
AcDbVertex
100
AcDb2dVertex
8
Layer01
10
403.481016
20
46.202788
30
0.0
0
VERTEX
100
AcDbVertex
100
AcDb2dVertex
8
Layer01
10
402.948022
20
46.367687
30
0.0
0
VERTEX
100
AcDbVertex
100
AcDb2dVertex
8
Layer01
10
402.415029
20
46.532374
30
0.0
0
VERTEX
100
AcDbVertex
100
AcDb2dVertex
8
Layer01
10
401.882036
20
46.696848
30
0.0
0
VERTEX
100
AcDbVertex
100
AcDb2dVertex
8
Layer01
10
401.349043
20
46.86111
30
0.0
0
VERTEX
100
AcDbVertex
100
AcDb2dVertex
8
Layer01
10
400.81605
20
47.025157
30
0.0
0
VERTEX
100
AcDbVertex
100
AcDb2dVertex
8
Layer01
10
400.283057
20
47.188989
30
0.0
0
VERTEX
100
AcDbVertex
100
AcDb2dVertex
8
Layer01
10
399.750064
20
47.352607
30
0.0
0
VERTEX
100
AcDbVertex
100
AcDb2dVertex
8
Layer01
10
399.217007
20
47.516025
30
0.0
0
VERTEX
100
AcDbVertex
100
AcDb2dVertex
8
Layer01
10
398.684014
20
47.679208
30
0.0
0
VERTEX
100
AcDbVertex
100
AcDb2dVertex
8
Layer01
10
398.151021
20
47.842174
30
0.0
0
VERTEX
100
AcDbVertex
100
AcDb2dVertex
8
Layer01
10
397.618027
20
48.004922
30
0.0
0
VERTEX
100
AcDbVertex
100
AcDb2dVertex
8
Layer01
10
397.085034
20
48.167452
30
0.0
0
VERTEX
100
AcDbVertex
100
AcDb2dVertex
8
Layer01
10
396.552041
20
48.329763
30
0.0
0
VERTEX
100
AcDbVertex
100
AcDb2dVertex
8
Layer01
10
396.019048
20
48.491856
30
0.0
0
VERTEX
100
AcDbVertex
100
AcDb2dVertex
8
Layer01
10
395.486055
20
48.653729
30
0.0
0
VERTEX
100
AcDbVertex
100
AcDb2dVertex
8
Layer01
10
394.953062
20
48.815383
30
0.0
0
VERTEX
100
AcDbVertex
100
AcDb2dVertex
8
Layer01
10
394.420069
20
48.976816
30
0.0
0
VERTEX
100
AcDbVertex
100
AcDb2dVertex
8
Layer01
10
393.887012
20
49.13805
30
0.0
0
VERTEX
100
AcDbVertex
100
AcDb2dVertex
8
Layer01
10
393.354019
20
49.299043
30
0.0
0
VERTEX
100
AcDbVertex
100
AcDb2dVertex
8
Layer01
10
392.821026
20
49.459814
30
0.0
0
VERTEX
100
AcDbVertex
100
AcDb2dVertex
8
Layer01
10
392.288033
20
49.620363
30
0.0
0
VERTEX
100
AcDbVertex
100
AcDb2dVertex
8
Layer01
10
391.755039
20
49.78069
30
0.0
0
VERTEX
100
AcDbVertex
100
AcDb2dVertex
8
Layer01
10
391.222046
20
49.940793
30
0.0
0
VERTEX
100
AcDbVertex
100
AcDb2dVertex
8
Layer01
10
390.689053
20
50.100672
30
0.0
0
VERTEX
100
AcDbVertex
100
AcDb2dVertex
8
Layer01
10
390.15606
20
50.260326
30
0.0
0
VERTEX
100
AcDbVertex
100
AcDb2dVertex
8
Layer01
10
389.623067
20
50.419756
30
0.0
0
VERTEX
100
AcDbVertex
100
AcDb2dVertex
8
Layer01
10
389.090074
20
50.57896
30
0.0
0
VERTEX
100
AcDbVertex
100
AcDb2dVertex
8
Layer01
10
388.557017
20
50.737956
30
0.0
0
VERTEX
100
AcDbVertex
100
AcDb2dVertex
8
Layer01
10
388.024024
20
50.896707
30
0.0
0
VERTEX
100
AcDbVertex
100
AcDb2dVertex
8
Layer01
10
387.491031
20
51.055231
30
0.0
0
VERTEX
100
AcDbVertex
100
AcDb2dVertex
8
Layer01
10
386.958038
20
51.213527
30
0.0
0
VERTEX
100
AcDbVertex
100
AcDb2dVertex
8
Layer01
10
386.425044
20
51.371595
30
0.0
0
VERTEX
100
AcDbVertex
100
AcDb2dVertex
8
Layer01
10
385.892051
20
51.529435
30
0.0
0
VERTEX
100
AcDbVertex
100
AcDb2dVertex
8
Layer01
10
385.359058
20
51.687047
30
0.0
0
VERTEX
100
AcDbVertex
100
AcDb2dVertex
8
Layer01
10
384.826065
20
51.844429
30
0.0
0
VERTEX
100
AcDbVertex
100
AcDb2dVertex
8
Layer01
10
384.293072
20
52.001581
30
0.0
0
VERTEX
100
AcDbVertex
100
AcDb2dVertex
8
Layer01
10
383.760079
20
52.158504
30
0.0
0
VERTEX
100
AcDbVertex
100
AcDb2dVertex
8
Layer01
10
383.227022
20
52.315227
30
0.0
0
VERTEX
100
AcDbVertex
100
AcDb2dVertex
8
Layer01
10
382.694029
20
52.471699
30
0.0
0
VERTEX
100
AcDbVertex
100
AcDb2dVertex
8
Layer01
10
382.161036
20
52.627938
30
0.0
0
VERTEX
100
AcDbVertex
100
AcDb2dVertex
8
Layer01
10
381.628043
20
52.783944
30
0.0
0
VERTEX
100
AcDbVertex
100
AcDb2dVertex
8
Layer01
10
381.09505
20
52.939715
30
0.0
0
VERTEX
100
AcDbVertex
100
AcDb2dVertex
8
Layer01
10
380.562056
20
53.09525
30
0.0
0
VERTEX
100
AcDbVertex
100
AcDb2dVertex
8
Layer01
10
380.029063
20
53.250548
30
0.0
0
VERTEX
100
AcDbVertex
100
AcDb2dVertex
8
Layer01
10
379.49607
20
53.40561
30
0.0
0
VERTEX
100
AcDbVertex
100
AcDb2dVertex
8
Layer01
10
378.963077
20
53.560435
30
0.0
0
VERTEX
100
AcDbVertex
100
AcDb2dVertex
8
Layer01
10
378.430084
20
53.715023
30
0.0
0
VERTEX
100
AcDbVertex
100
AcDb2dVertex
8
Layer01
10
377.896995
20
53.869354
30
0.0
0
VERTEX
100
AcDbVertex
100
AcDb2dVertex
8
Layer01
10
377.364002
20
54.023425
30
0.0
0
VERTEX
100
AcDbVertex
100
AcDb2dVertex
8
Layer01
10
376.831009
20
54.177269
30
0.0
0
VERTEX
100
AcDbVertex
100
AcDb2dVertex
8
Layer01
10
376.298016
20
54.330891
30
0.0
0
VERTEX
100
AcDbVertex
100
AcDb2dVertex
8
Layer01
10
375.765023
20
54.484294
30
0.0
0
VERTEX
100
AcDbVertex
100
AcDb2dVertex
8
Layer01
10
375.23203
20
54.637485
30
0.0
0
VERTEX
100
AcDbVertex
100
AcDb2dVertex
8
Layer01
10
374.699037
20
54.790468
30
0.0
0
VERTEX
100
AcDbVertex
100
AcDb2dVertex
8
Layer01
10
374.166043
20
54.943246
30
0.0
0
VERTEX
100
AcDbVertex
100
AcDb2dVertex
8
Layer01
10
373.63305
20
55.095824
30
0.0
0
VERTEX
100
AcDbVertex
100
AcDb2dVertex
8
Layer01
10
373.100057
20
55.248205
30
0.0
0
VERTEX
100
AcDbVertex
100
AcDb2dVertex
8
Layer01
10
372.567001
20
55.400483
30
0.0
0
VERTEX
100
AcDbVertex
100
AcDb2dVertex
8
Layer01
10
372.034007
20
55.552545
30
0.0
0
VERTEX
100
AcDbVertex
100
AcDb2dVertex
8
Layer01
10
371.501014
20
55.704405
30
0.0
0
VERTEX
100
AcDbVertex
100
AcDb2dVertex
8
Layer01
10
370.968021
20
55.856059
30
0.0
0
VERTEX
100
AcDbVertex
100
AcDb2dVertex
8
Layer01
10
370.435028
20
56.0075
30
0.0
0
VERTEX
100
AcDbVertex
100
AcDb2dVertex
8
Layer01
10
369.902035
20
56.158725
30
0.0
0
VERTEX
100
AcDbVertex
100
AcDb2dVertex
8
Layer01
10
369.369042
20
56.309727
30
0.0
0
VERTEX
100
AcDbVertex
100
AcDb2dVertex
8
Layer01
10
368.836049
20
56.4605
30
0.0
0
VERTEX
100
AcDbVertex
100
AcDb2dVertex
8
Layer01
10
368.303055
20
56.611039
30
0.0
0
VERTEX
100
AcDbVertex
100
AcDb2dVertex
8
Layer01
10
367.770062
20
56.761338
30
0.0
0
VERTEX
100
AcDbVertex
100
AcDb2dVertex
8
Layer01
10
367.237006
20
56.911362
30
0.0
0
VERTEX
100
AcDbVertex
100
AcDb2dVertex
8
Layer01
10
366.704012
20
57.061121
30
0.0
0
VERTEX
100
AcDbVertex
100
AcDb2dVertex
8
Layer01
10
366.171019
20
57.210634
30
0.0
0
VERTEX
100
AcDbVertex
100
AcDb2dVertex
8
Layer01
10
365.638026
20
57.359899
30
0.0
0
VERTEX
100
AcDbVertex
100
AcDb2dVertex
8
Layer01
10
365.105033
20
57.508915
30
0.0
0
VERTEX
100
AcDbVertex
100
AcDb2dVertex
8
Layer01
10
364.57204
20
57.657683
30
0.0
0
VERTEX
100
AcDbVertex
100
AcDb2dVertex
8
Layer01
10
364.039047
20
57.806202
30
0.0
0
VERTEX
100
AcDbVertex
100
AcDb2dVertex
8
Layer01
10
363.506054
20
57.954474
30
0.0
0
VERTEX
100
AcDbVertex
100
AcDb2dVertex
8
Layer01
10
362.97306
20
58.102497
30
0.0
0
VERTEX
100
AcDbVertex
100
AcDb2dVertex
8
Layer01
10
362.440067
20
58.250272
30
0.0
0
VERTEX
100
AcDbVertex
100
AcDb2dVertex
8
Layer01
10
361.907011
20
58.397829
30
0.0
0
VERTEX
100
AcDbVertex
100
AcDb2dVertex
8
Layer01
10
361.374018
20
58.545121
30
0.0
0
VERTEX
100
AcDbVertex
100
AcDb2dVertex
8
Layer01
10
360.841024
20
58.692165
30
0.0
0
VERTEX
100
AcDbVertex
100
AcDb2dVertex
8
Layer01
10
360.308031
20
58.838959
30
0.0
0
VERTEX
100
AcDbVertex
100
AcDb2dVertex
8
Layer01
10
359.775038
20
58.985504
30
0.0
0
VERTEX
100
AcDbVertex
100
AcDb2dVertex
8
Layer01
10
359.242045
20
59.1318
30
0.0
0
VERTEX
100
AcDbVertex
100
AcDb2dVertex
8
Layer01
10
358.709052
20
59.277845
30
0.0
0
VERTEX
100
AcDbVertex
100
AcDb2dVertex
8
Layer01
10
358.176059
20
59.42364
30
0.0
0
VERTEX
100
AcDbVertex
100
AcDb2dVertex
8
Layer01
10
357.643066
20
59.569184
30
0.0
0
VERTEX
100
AcDbVertex
100
AcDb2dVertex
8
Layer01
10
357.110072
20
59.714475
30
0.0
0
VERTEX
100
AcDbVertex
100
AcDb2dVertex
8
Layer01
10
356.577016
20
59.859533
30
0.0
0
VERTEX
100
AcDbVertex
100
AcDb2dVertex
8
Layer01
10
356.044023
20
60.00432
30
0.0
0
VERTEX
100
AcDbVertex
100
AcDb2dVertex
8
Layer01
10
355.511029
20
60.148855
30
0.0
0
VERTEX
100
AcDbVertex
100
AcDb2dVertex
8
Layer01
10
354.978036
20
60.293135
30
0.0
0
VERTEX
100
AcDbVertex
100
AcDb2dVertex
8
Layer01
10
354.445043
20
60.437162
30
0.0
0
VERTEX
100
AcDbVertex
100
AcDb2dVertex
8
Layer01
10
353.91205
20
60.580934
30
0.0
0
VERTEX
100
AcDbVertex
100
AcDb2dVertex
8
Layer01
10
353.379057
20
60.724451
30
0.0
0
VERTEX
100
AcDbVertex
100
AcDb2dVertex
8
Layer01
10
352.846064
20
60.867713
30
0.0
0
VERTEX
100
AcDbVertex
100
AcDb2dVertex
8
Layer01
10
352.313071
20
61.010719
30
0.0
0
VERTEX
100
AcDbVertex
100
AcDb2dVertex
8
Layer01
10
351.780078
20
61.153468
30
0.0
0
VERTEX
100
AcDbVertex
100
AcDb2dVertex
8
Layer01
10
351.247021
20
61.295977
30
0.0
0
VERTEX
100
AcDbVertex
100
AcDb2dVertex
8
Layer01
10
350.714028
20
61.438211
30
0.0
0
VERTEX
100
AcDbVertex
100
AcDb2dVertex
8
Layer01
10
350.181035
20
61.580188
30
0.0
0
VERTEX
100
AcDbVertex
100
AcDb2dVertex
8
Layer01
10
349.648041
20
61.721906
30
0.0
0
VERTEX
100
AcDbVertex
100
AcDb2dVertex
8
Layer01
10
349.115048
20
61.863366
30
0.0
0
VERTEX
100
AcDbVertex
100
AcDb2dVertex
8
Layer01
10
348.582055
20
62.004566
30
0.0
0
VERTEX
100
AcDbVertex
100
AcDb2dVertex
8
Layer01
10
348.049062
20
62.145507
30
0.0
0
VERTEX
100
AcDbVertex
100
AcDb2dVertex
8
Layer01
10
347.516069
20
62.286189
30
0.0
0
VERTEX
100
AcDbVertex
100
AcDb2dVertex
8
Layer01
10
346.983076
20
62.426609
30
0.0
0
VERTEX
100
AcDbVertex
100
AcDb2dVertex
8
Layer01
10
346.450083
20
62.56677
30
0.0
0
VERTEX
100
AcDbVertex
100
AcDb2dVertex
8
Layer01
10
345.916994
20
62.706694
30
0.0
0
VERTEX
100
AcDbVertex
100
AcDb2dVertex
8
Layer01
10
345.384001
20
62.846331
30
0.0
0
VERTEX
100
AcDbVertex
100
AcDb2dVertex
8
Layer01
10
344.851008
20
62.985707
30
0.0
0
VERTEX
100
AcDbVertex
100
AcDb2dVertex
8
Layer01
10
344.318015
20
63.12482
30
0.0
0
VERTEX
100
AcDbVertex
100
AcDb2dVertex
8
Layer01
10
343.785022
20
63.26367
30
0.0
0
VERTEX
100
AcDbVertex
100
AcDb2dVertex
8
Layer01
10
343.252028
20
63.402257
30
0.0
0
VERTEX
100
AcDbVertex
100
AcDb2dVertex
8
Layer01
10
342.719035
20
63.54058
30
0.0
0
VERTEX
100
AcDbVertex
100
AcDb2dVertex
8
Layer01
10
342.186042
20
63.678639
30
0.0
0
VERTEX
100
AcDbVertex
100
AcDb2dVertex
8
Layer01
10
341.653049
20
63.816433
30
0.0
0
VERTEX
100
AcDbVertex
100
AcDb2dVertex
8
Layer01
10
341.120056
20
63.953963
30
0.0
0
VERTEX
100
AcDbVertex
100
AcDb2dVertex
8
Layer01
10
340.586999
20
64.091243
30
0.0
0
VERTEX
100
AcDbVertex
100
AcDb2dVertex
8
Layer01
10
340.054006
20
64.228241
30
0.0
0
VERTEX
100
AcDbVertex
100
AcDb2dVertex
8
Layer01
10
339.521013
20
64.364973
30
0.0
0
VERTEX
100
AcDbVertex
100
AcDb2dVertex
8
Layer01
10
338.98802
20
64.501439
30
0.0
0
VERTEX
100
AcDbVertex
100
AcDb2dVertex
8
Layer01
10
338.455027
20
64.637637
30
0.0
0
VERTEX
100
AcDbVertex
100
AcDb2dVertex
8
Layer01
10
337.922034
20
64.773567
30
0.0
0
VERTEX
100
AcDbVertex
100
AcDb2dVertex
8
Layer01
10
337.38904
20
64.909229
30
0.0
0
VERTEX
100
AcDbVertex
100
AcDb2dVertex
8
Layer01
10
336.856047
20
65.044623
30
0.0
0
VERTEX
100
AcDbVertex
100
AcDb2dVertex
8
Layer01
10
336.323054
20
65.179748
30
0.0
0
VERTEX
100
AcDbVertex
100
AcDb2dVertex
8
Layer01
10
335.790061
20
65.314604
30
0.0
0
VERTEX
100
AcDbVertex
100
AcDb2dVertex
8
Layer01
10
335.257004
20
65.449205
30
0.0
0
VERTEX
100
AcDbVertex
100
AcDb2dVertex
8
Layer01
10
334.724011
20
65.58352
30
0.0
0
VERTEX
100
AcDbVertex
100
AcDb2dVertex
8
Layer01
10
334.191018
20
65.717565
30
0.0
0
VERTEX
100
AcDbVertex
100
AcDb2dVertex
8
Layer01
10
333.658025
20
65.851339
30
0.0
0
VERTEX
100
AcDbVertex
100
AcDb2dVertex
8
Layer01
10
333.125032
20
65.984842
30
0.0
0
VERTEX
100
AcDbVertex
100
AcDb2dVertex
8
Layer01
10
332.592039
20
66.118073
30
0.0
0
VERTEX
100
AcDbVertex
100
AcDb2dVertex
8
Layer01
10
332.059045
20
66.251032
30
0.0
0
VERTEX
100
AcDbVertex
100
AcDb2dVertex
8
Layer01
10
331.526052
20
66.38372
30
0.0
0
VERTEX
100
AcDbVertex
100
AcDb2dVertex
8
Layer01
10
330.993059
20
66.516134
30
0.0
0
VERTEX
100
AcDbVertex
100
AcDb2dVertex
8
Layer01
10
330.460066
20
66.648276
30
0.0
0
VERTEX
100
AcDbVertex
100
AcDb2dVertex
8
Layer01
10
329.927009
20
66.78015
30
0.0
0
VERTEX
100
AcDbVertex
100
AcDb2dVertex
8
Layer01
10
329.394016
20
66.911736
30
0.0
0
VERTEX
100
AcDbVertex
100
AcDb2dVertex
8
Layer01
10
328.861023
20
67.043049
30
0.0
0
VERTEX
100
AcDbVertex
100
AcDb2dVertex
8
Layer01
10
328.32803
20
67.174089
30
0.0
0
VERTEX
100
AcDbVertex
100
AcDb2dVertex
8
Layer01
10
327.795037
20
67.304857
30
0.0
0
VERTEX
100
AcDbVertex
100
AcDb2dVertex
8
Layer01
10
327.262044
20
67.435353
30
0.0
0
VERTEX
100
AcDbVertex
100
AcDb2dVertex
8
Layer01
10
326.729051
20
67.565576
30
0.0
0
VERTEX
100
AcDbVertex
100
AcDb2dVertex
8
Layer01
10
326.196057
20
67.695526
30
0.0
0
VERTEX
100
AcDbVertex
100
AcDb2dVertex
8
Layer01
10
325.663064
20
67.825202
30
0.0
0
VERTEX
100
AcDbVertex
100
AcDb2dVertex
8
Layer01
10
325.130071
20
67.954605
30
0.0
0
VERTEX
100
AcDbVertex
100
AcDb2dVertex
8
Layer01
10
324.597014
20
68.08379
30
0.0
0
VERTEX
100
AcDbVertex
100
AcDb2dVertex
8
Layer01
10
324.064021
20
68.212679
30
0.0
0
VERTEX
100
AcDbVertex
100
AcDb2dVertex
8
Layer01
10
323.531028
20
68.341283
30
0.0
0
VERTEX
100
AcDbVertex
100
AcDb2dVertex
8
Layer01
10
322.998035
20
68.469597
30
0.0
0
VERTEX
100
AcDbVertex
100
AcDb2dVertex
8
Layer01
10
322.465042
20
68.597615
30
0.0
0
VERTEX
100
AcDbVertex
100
AcDb2dVertex
8
Layer01
10
321.932049
20
68.725334
30
0.0
0
VERTEX
100
AcDbVertex
100
AcDb2dVertex
8
Layer01
10
321.399056
20
68.852746
30
0.0
0
VERTEX
100
AcDbVertex
100
AcDb2dVertex
8
Layer01
10
320.866063
20
68.97985
30
0.0
0
VERTEX
100
AcDbVertex
100
AcDb2dVertex
8
Layer01
10
320.333069
20
69.106639
30
0.0
0
VERTEX
100
AcDbVertex
100
AcDb2dVertex
8
Layer01
10
319.800076
20
69.233111
30
0.0
0
VERTEX
100
AcDbVertex
100
AcDb2dVertex
8
Layer01
10
319.26702
20
69.359211
30
0.0
0
VERTEX
100
AcDbVertex
100
AcDb2dVertex
8
Layer01
10
318.734026
20
69.484978
30
0.0
0
VERTEX
100
AcDbVertex
100
AcDb2dVertex
8
Layer01
10
318.201033
20
69.61043
30
0.0
0
VERTEX
100
AcDbVertex
100
AcDb2dVertex
8
Layer01
10
317.66804
20
69.735571
30
0.0
0
VERTEX
100
AcDbVertex
100
AcDb2dVertex
8
Layer01
10
317.135047
20
69.860404
30
0.0
0
VERTEX
100
AcDbVertex
100
AcDb2dVertex
8
Layer01
10
316.602054
20
69.984935
30
0.0
0
VERTEX
100
AcDbVertex
100
AcDb2dVertex
8
Layer01
10
316.069061
20
70.109167
30
0.0
0
VERTEX
100
AcDbVertex
100
AcDb2dVertex
8
Layer01
10
315.536068
20
70.233105
30
0.0
0
VERTEX
100
AcDbVertex
100
AcDb2dVertex
8
Layer01
10
315.003074
20
70.356753
30
0.0
0
VERTEX
100
AcDbVertex
100
AcDb2dVertex
8
Layer01
10
314.470081
20
70.480117
30
0.0
0
VERTEX
100
AcDbVertex
100
AcDb2dVertex
8
Layer01
10
313.936993
20
70.603265
30
0.0
0
VERTEX
100
AcDbVertex
100
AcDb2dVertex
8
Layer01
10
313.404
20
70.726111
30
0.0
0
VERTEX
100
AcDbVertex
100
AcDb2dVertex
8
Layer01
10
312.871007
20
70.848677
30
0.0
0
VERTEX
100
AcDbVertex
100
AcDb2dVertex
8
Layer01
10
312.338013
20
70.970963
30
0.0
0
VERTEX
100
AcDbVertex
100
AcDb2dVertex
8
Layer01
10
311.80502
20
71.092968
30
0.0
0
VERTEX
100
AcDbVertex
100
AcDb2dVertex
8
Layer01
10
311.272027
20
71.214694
30
0.0
0
VERTEX
100
AcDbVertex
100
AcDb2dVertex
8
Layer01
10
310.739034
20
71.336137
30
0.0
0
VERTEX
100
AcDbVertex
100
AcDb2dVertex
8
Layer01
10
310.206041
20
71.457299
30
0.0
0
VERTEX
100
AcDbVertex
100
AcDb2dVertex
8
Layer01
10
309.673048
20
71.578179
30
0.0
0
VERTEX
100
AcDbVertex
100
AcDb2dVertex
8
Layer01
10
309.140055
20
71.698775
30
0.0
0
VERTEX
100
AcDbVertex
100
AcDb2dVertex
8
Layer01
10
308.606998
20
71.81909
30
0.0
0
VERTEX
100
AcDbVertex
100
AcDb2dVertex
8
Layer01
10
308.074005
20
71.939106
30
0.0
0
VERTEX
100
AcDbVertex
100
AcDb2dVertex
8
Layer01
10
307.541012
20
72.058838
30
0.0
0
VERTEX
100
AcDbVertex
100
AcDb2dVertex
8
Layer01
10
307.008019
20
72.178284
30
0.0
0
VERTEX
100
AcDbVertex
100
AcDb2dVertex
8
Layer01
10
306.475025
20
72.297445
30
0.0
0
VERTEX
100
AcDbVertex
100
AcDb2dVertex
8
Layer01
10
305.942032
20
72.41632
30
0.0
0
VERTEX
100
AcDbVertex
100
AcDb2dVertex
8
Layer01
10
305.409039
20
72.53491
30
0.0
0
VERTEX
100
AcDbVertex
100
AcDb2dVertex
8
Layer01
10
304.876046
20
72.653214
30
0.0
0
VERTEX
100
AcDbVertex
100
AcDb2dVertex
8
Layer01
10
304.343053
20
72.771232
30
0.0
0
VERTEX
100
AcDbVertex
100
AcDb2dVertex
8
Layer01
10
303.81006
20
72.888963
30
0.0
0
VERTEX
100
AcDbVertex
100
AcDb2dVertex
8
Layer01
10
303.277003
20
73.006421
30
0.0
0
VERTEX
100
AcDbVertex
100
AcDb2dVertex
8
Layer01
10
302.74401
20
73.123579
30
0.0
0
VERTEX
100
AcDbVertex
100
AcDb2dVertex
8
Layer01
10
302.211017
20
73.240449
30
0.0
0
VERTEX
100
AcDbVertex
100
AcDb2dVertex
8
Layer01
10
301.678024
20
73.357032
30
0.0
0
VERTEX
100
AcDbVertex
100
AcDb2dVertex
8
Layer01
10
301.14503
20
73.473327
30
0.0
0
VERTEX
100
AcDbVertex
100
AcDb2dVertex
8
Layer01
10
300.612037
20
73.589333
30
0.0
0
VERTEX
100
AcDbVertex
100
AcDb2dVertex
8
Layer01
10
300.079044
20
73.705052
30
0.0
0
VERTEX
100
AcDbVertex
100
AcDb2dVertex
8
Layer01
10
299.546051
20
73.820482
30
0.0
0
VERTEX
100
AcDbVertex
100
AcDb2dVertex
8
Layer01
10
299.013058
20
73.935623
30
0.0
0
VERTEX
100
AcDbVertex
100
AcDb2dVertex
8
Layer01
10
298.480065
20
74.050476
30
0.0
0
VERTEX
100
AcDbVertex
100
AcDb2dVertex
8
Layer01
10
297.947008
20
74.165052
30
0.0
0
VERTEX
100
AcDbVertex
100
AcDb2dVertex
8
Layer01
10
297.414015
20
74.279324
30
0.0
0
VERTEX
100
AcDbVertex
100
AcDb2dVertex
8
Layer01
10
296.881022
20
74.393307
30
0.0
0
VERTEX
100
AcDbVertex
100
AcDb2dVertex
8
Layer01
10
296.348029
20
74.506999
30
0.0
0
VERTEX
100
AcDbVertex
100
AcDb2dVertex
8
Layer01
10
295.815036
20
74.620402
30
0.0
0
VERTEX
100
AcDbVertex
100
AcDb2dVertex
8
Layer01
10
295.282042
20
74.733513
30
0.0
0
VERTEX
100
AcDbVertex
100
AcDb2dVertex
8
Layer01
10
294.749049
20
74.846333
30
0.0
0
VERTEX
100
AcDbVertex
100
AcDb2dVertex
8
Layer01
10
294.216056
20
74.958863
30
0.0
0
VERTEX
100
AcDbVertex
100
AcDb2dVertex
8
Layer01
10
293.683063
20
75.071101
30
0.0
0
VERTEX
100
AcDbVertex
100
AcDb2dVertex
8
Layer01
10
293.15007
20
75.183047
30
0.0
0
VERTEX
100
AcDbVertex
100
AcDb2dVertex
8
Layer01
10
292.617013
20
75.294714
30
0.0
0
VERTEX
100
AcDbVertex
100
AcDb2dVertex
8
Layer01
10
292.08402
20
75.406075
30
0.0
0
VERTEX
100
AcDbVertex
100
AcDb2dVertex
8
Layer01
10
291.551027
20
75.517145
30
0.0
0
VERTEX
100
AcDbVertex
100
AcDb2dVertex
8
Layer01
10
291.018034
20
75.627921
30
0.0
0
VERTEX
100
AcDbVertex
100
AcDb2dVertex
8
Layer01
10
290.485041
20
75.738404
30
0.0
0
VERTEX
100
AcDbVertex
100
AcDb2dVertex
8
Layer01
10
289.952048
20
75.848593
30
0.0
0
VERTEX
100
AcDbVertex
100
AcDb2dVertex
8
Layer01
10
289.419054
20
75.958489
30
0.0
0
VERTEX
100
AcDbVertex
100
AcDb2dVertex
8
Layer01
10
288.886061
20
76.06809
30
0.0
0
VERTEX
100
AcDbVertex
100
AcDb2dVertex
8
Layer01
10
288.353068
20
76.177397
30
0.0
0
VERTEX
100
AcDbVertex
100
AcDb2dVertex
8
Layer01
10
287.820075
20
76.286409
30
0.0
0
VERTEX
100
AcDbVertex
100
AcDb2dVertex
8
Layer01
10
287.287018
20
76.395139
30
0.0
0
VERTEX
100
AcDbVertex
100
AcDb2dVertex
8
Layer01
10
286.754025
20
76.503561
30
0.0
0
VERTEX
100
AcDbVertex
100
AcDb2dVertex
8
Layer01
10
286.221032
20
76.611686
30
0.0
0
VERTEX
100
AcDbVertex
100
AcDb2dVertex
8
Layer01
10
285.688039
20
76.719516
30
0.0
0
VERTEX
100
AcDbVertex
100
AcDb2dVertex
8
Layer01
10
285.155046
20
76.827048
30
0.0
0
VERTEX
100
AcDbVertex
100
AcDb2dVertex
8
Layer01
10
284.622053
20
76.934283
30
0.0
0
VERTEX
100
AcDbVertex
100
AcDb2dVertex
8
Layer01
10
284.089059
20
77.041221
30
0.0
0
VERTEX
100
AcDbVertex
100
AcDb2dVertex
8
Layer01
10
283.556066
20
77.147861
30
0.0
0
VERTEX
100
AcDbVertex
100
AcDb2dVertex
8
Layer01
10
283.023073
20
77.254202
30
0.0
0
VERTEX
100
AcDbVertex
100
AcDb2dVertex
8
Layer01
10
282.49008
20
77.360244
30
0.0
0
VERTEX
100
AcDbVertex
100
AcDb2dVertex
8
Layer01
10
281.956992
20
77.466005
30
0.0
0
VERTEX
100
AcDbVertex
100
AcDb2dVertex
8
Layer01
10
281.423998
20
77.571448
30
0.0
0
VERTEX
100
AcDbVertex
100
AcDb2dVertex
8
Layer01
10
280.891005
20
77.67659
30
0.0
0
VERTEX
100
AcDbVertex
100
AcDb2dVertex
8
Layer01
10
280.358012
20
77.781431
30
0.0
0
VERTEX
100
AcDbVertex
100
AcDb2dVertex
8
Layer01
10
279.825019
20
77.885971
30
0.0
0
VERTEX
100
AcDbVertex
100
AcDb2dVertex
8
Layer01
10
279.292026
20
77.990208
30
0.0
0
VERTEX
100
AcDbVertex
100
AcDb2dVertex
8
Layer01
10
278.759033
20
78.094144
30
0.0
0
VERTEX
100
AcDbVertex
100
AcDb2dVertex
8
Layer01
10
278.22604
20
78.197776
30
0.0
0
VERTEX
100
AcDbVertex
100
AcDb2dVertex
8
Layer01
10
277.693047
20
78.301105
30
0.0
0
VERTEX
100
AcDbVertex
100
AcDb2dVertex
8
Layer01
10
277.160053
20
78.40413
30
0.0
0
VERTEX
100
AcDbVertex
100
AcDb2dVertex
8
Layer01
10
276.626997
20
78.506907
30
0.0
0
VERTEX
100
AcDbVertex
100
AcDb2dVertex
8
Layer01
10
276.094004
20
78.609363
30
0.0
0
VERTEX
100
AcDbVertex
100
AcDb2dVertex
8
Layer01
10
275.56101
20
78.711506
30
0.0
0
VERTEX
100
AcDbVertex
100
AcDb2dVertex
8
Layer01
10
275.028017
20
78.813333
30
0.0
0
VERTEX
100
AcDbVertex
100
AcDb2dVertex
8
Layer01
10
274.495024
20
78.914841
30
0.0
0
VERTEX
100
AcDbVertex
100
AcDb2dVertex
8
Layer01
10
273.962031
20
79.016027
30
0.0
0
VERTEX
100
AcDbVertex
100
AcDb2dVertex
8
Layer01
10
273.429038
20
79.116889
30
0.0
0
VERTEX
100
AcDbVertex
100
AcDb2dVertex
8
Layer01
10
272.896045
20
79.217425
30
0.0
0
VERTEX
100
AcDbVertex
100
AcDb2dVertex
8
Layer01
10
272.363052
20
79.317636
30
0.0
0
VERTEX
100
AcDbVertex
100
AcDb2dVertex
8
Layer01
10
271.830058
20
79.417522
30
0.0
0
VERTEX
100
AcDbVertex
100
AcDb2dVertex
8
Layer01
10
271.297002
20
79.516916
30
0.0
0
VERTEX
100
AcDbVertex
100
AcDb2dVertex
8
Layer01
10
270.764009
20
79.615993
30
0.0
0
VERTEX
100
AcDbVertex
100
AcDb2dVertex
8
Layer01
10
270.231016
20
79.714781
30
0.0
0
VERTEX
100
AcDbVertex
100
AcDb2dVertex
8
Layer01
10
269.698022
20
79.8133
30
0.0
0
VERTEX
100
AcDbVertex
100
AcDb2dVertex
8
Layer01
10
269.165029
20
79.911567
30
0.0
0
VERTEX
100
AcDbVertex
100
AcDb2dVertex
8
Layer01
10
268.632036
20
80.009602
30
0.0
0
VERTEX
100
AcDbVertex
100
AcDb2dVertex
8
Layer01
10
268.099043
20
80.10742
30
0.0
0
VERTEX
100
AcDbVertex
100
AcDb2dVertex
8
Layer01
10
267.56605
20
80.205038
30
0.0
0
VERTEX
100
AcDbVertex
100
AcDb2dVertex
8
Layer01
10
267.033057
20
80.302472
30
0.0
0
VERTEX
100
AcDbVertex
100
AcDb2dVertex
8
Layer01
10
266.500064
20
80.399734
30
0.0
0
VERTEX
100
AcDbVertex
100
AcDb2dVertex
8
Layer01
10
265.967007
20
80.497117
30
0.0
0
VERTEX
100
AcDbVertex
100
AcDb2dVertex
8
Layer01
10
265.434014
20
80.594314
30
0.0
0
VERTEX
100
AcDbVertex
100
AcDb2dVertex
8
Layer01
10
264.901021
20
80.691321
30
0.0
0
VERTEX
100
AcDbVertex
100
AcDb2dVertex
8
Layer01
10
264.368027
20
80.788121
30
0.0
0
VERTEX
100
AcDbVertex
100
AcDb2dVertex
8
Layer01
10
263.835034
20
80.884694
30
0.0
0
VERTEX
100
AcDbVertex
100
AcDb2dVertex
8
Layer01
10
263.302041
20
80.981021
30
0.0
0
VERTEX
100
AcDbVertex
100
AcDb2dVertex
8
Layer01
10
262.769048
20
81.077081
30
0.0
0
VERTEX
100
AcDbVertex
100
AcDb2dVertex
8
Layer01
10
262.236055
20
81.172853
30
0.0
0
VERTEX
100
AcDbVertex
100
AcDb2dVertex
8
Layer01
10
261.703062
20
81.268317
30
0.0
0
VERTEX
100
AcDbVertex
100
AcDb2dVertex
8
Layer01
10
261.170069
20
81.36345
30
0.0
0
VERTEX
100
AcDbVertex
100
AcDb2dVertex
8
Layer01
10
260.637012
20
81.458067
30
0.0
0
VERTEX
100
AcDbVertex
100
AcDb2dVertex
8
Layer01
10
260.104019
20
81.552318
30
0.0
0
VERTEX
100
AcDbVertex
100
AcDb2dVertex
8
Layer01
10
259.571026
20
81.646213
30
0.0
0
VERTEX
100
AcDbVertex
100
AcDb2dVertex
8
Layer01
10
259.038033
20
81.739748
30
0.0
0
VERTEX
100
AcDbVertex
100
AcDb2dVertex
8
Layer01
10
258.505039
20
81.832922
30
0.0
0
VERTEX
100
AcDbVertex
100
AcDb2dVertex
8
Layer01
10
257.972046
20
81.925734
30
0.0
0
VERTEX
100
AcDbVertex
100
AcDb2dVertex
8
Layer01
10
257.439053
20
82.018185
30
0.0
0
VERTEX
100
AcDbVertex
100
AcDb2dVertex
8
Layer01
10
256.90606
20
82.110275
30
0.0
0
VERTEX
100
AcDbVertex
100
AcDb2dVertex
8
Layer01
10
256.373067
20
82.202005
30
0.0
0
VERTEX
100
AcDbVertex
100
AcDb2dVertex
8
Layer01
10
255.840074
20
82.293375
30
0.0
0
VERTEX
100
AcDbVertex
100
AcDb2dVertex
8
Layer01
10
255.307001
20
82.384445
30
0.0
0
VERTEX
100
AcDbVertex
100
AcDb2dVertex
8
Layer01
10
254.774008
20
82.475141
30
0.0
0
VERTEX
100
AcDbVertex
100
AcDb2dVertex
8
Layer01
10
254.241015
20
82.565476
30
0.0
0
VERTEX
100
AcDbVertex
100
AcDb2dVertex
8
Layer01
10
253.708022
20
82.655448
30
0.0
0
VERTEX
100
AcDbVertex
100
AcDb2dVertex
8
Layer01
10
253.175029
20
82.745054
30
0.0
0
VERTEX
100
AcDbVertex
100
AcDb2dVertex
8
Layer01
10
252.642035
20
82.834293
30
0.0
0
VERTEX
100
AcDbVertex
100
AcDb2dVertex
8
Layer01
10
252.109042
20
82.923163
30
0.0
0
VERTEX
100
AcDbVertex
100
AcDb2dVertex
8
Layer01
10
251.576049
20
83.011662
30
0.0
0
VERTEX
100
AcDbVertex
100
AcDb2dVertex
8
Layer01
10
251.043056
20
83.099788
30
0.0
0
VERTEX
100
AcDbVertex
100
AcDb2dVertex
8
Layer01
10
250.510063
20
83.187538
30
0.0
0
VERTEX
100
AcDbVertex
100
AcDb2dVertex
8
Layer01
10
249.977006
20
83.274924
30
0.0
0
VERTEX
100
AcDbVertex
100
AcDb2dVertex
8
Layer01
10
249.444013
20
83.361921
30
0.0
0
VERTEX
100
AcDbVertex
100
AcDb2dVertex
8
Layer01
10
248.91102
20
83.448536
30
0.0
0
VERTEX
100
AcDbVertex
100
AcDb2dVertex
8
Layer01
10
248.378027
20
83.534766
30
0.0
0
VERTEX
100
AcDbVertex
100
AcDb2dVertex
8
Layer01
10
247.845034
20
83.620611
30
0.0
0
VERTEX
100
AcDbVertex
100
AcDb2dVertex
8
Layer01
10
247.312041
20
83.706067
30
0.0
0
VERTEX
100
AcDbVertex
100
AcDb2dVertex
8
Layer01
10
246.779047
20
83.791133
30
0.0
0
VERTEX
100
AcDbVertex
100
AcDb2dVertex
8
Layer01
10
246.246054
20
83.875805
30
0.0
0
VERTEX
100
AcDbVertex
100
AcDb2dVertex
8
Layer01
10
245.713061
20
83.960083
30
0.0
0
VERTEX
100
AcDbVertex
100
AcDb2dVertex
8
Layer01
10
245.180068
20
84.043962
30
0.0
0
VERTEX
100
AcDbVertex
100
AcDb2dVertex
8
Layer01
10
244.647011
20
84.12745
30
0.0
0
VERTEX
100
AcDbVertex
100
AcDb2dVertex
8
Layer01
10
244.114018
20
84.210526
30
0.0
0
VERTEX
100
AcDbVertex
100
AcDb2dVertex
8
Layer01
10
243.581025
20
84.293197
30
0.0
0
VERTEX
100
AcDbVertex
100
AcDb2dVertex
8
Layer01
10
243.048032
20
84.375463
30
0.0
0
VERTEX
100
AcDbVertex
100
AcDb2dVertex
8
Layer01
10
242.515039
20
84.45732
30
0.0
0
VERTEX
100
AcDbVertex
100
AcDb2dVertex
8
Layer01
10
241.982046
20
84.538767
30
0.0
0
VERTEX
100
AcDbVertex
100
AcDb2dVertex
8
Layer01
10
241.449052
20
84.619802
30
0.0
0
VERTEX
100
AcDbVertex
100
AcDb2dVertex
8
Layer01
10
240.916059
20
84.700422
30
0.0
0
VERTEX
100
AcDbVertex
100
AcDb2dVertex
8
Layer01
10
240.383066
20
84.780626
30
0.0
0
VERTEX
100
AcDbVertex
100
AcDb2dVertex
8
Layer01
10
239.850073
20
84.860411
30
0.0
0
VERTEX
100
AcDbVertex
100
AcDb2dVertex
8
Layer01
10
239.317001
20
84.939789
30
0.0
0
VERTEX
100
AcDbVertex
100
AcDb2dVertex
8
Layer01
10
238.784007
20
85.018732
30
0.0
0
VERTEX
100
AcDbVertex
100
AcDb2dVertex
8
Layer01
10
238.251014
20
85.097251
30
0.0
0
VERTEX
100
AcDbVertex
100
AcDb2dVertex
8
Layer01
10
237.718021
20
85.175342
30
0.0
0
VERTEX
100
AcDbVertex
100
AcDb2dVertex
8
Layer01
10
237.185028
20
85.253005
30
0.0
0
VERTEX
100
AcDbVertex
100
AcDb2dVertex
8
Layer01
10
236.652035
20
85.330236
30
0.0
0
VERTEX
100
AcDbVertex
100
AcDb2dVertex
8
Layer01
10
236.119042
20
85.407035
30
0.0
0
VERTEX
100
AcDbVertex
100
AcDb2dVertex
8
Layer01
10
235.586049
20
85.483398
30
0.0
0
VERTEX
100
AcDbVertex
100
AcDb2dVertex
8
Layer01
10
235.053055
20
85.559323
30
0.0
0
VERTEX
100
AcDbVertex
100
AcDb2dVertex
8
Layer01
10
234.520062
20
85.634809
30
0.0
0
VERTEX
100
AcDbVertex
100
AcDb2dVertex
8
Layer01
10
233.987006
20
85.709863
30
0.0
0
VERTEX
100
AcDbVertex
100
AcDb2dVertex
8
Layer01
10
233.454012
20
85.784464
30
0.0
0
VERTEX
100
AcDbVertex
100
AcDb2dVertex
8
Layer01
10
232.921019
20
85.858619
30
0.0
0
VERTEX
100
AcDbVertex
100
AcDb2dVertex
8
Layer01
10
232.388026
20
85.932325
30
0.0
0
VERTEX
100
AcDbVertex
100
AcDb2dVertex
8
Layer01
10
231.855033
20
86.005581
30
0.0
0
VERTEX
100
AcDbVertex
100
AcDb2dVertex
8
Layer01
10
231.32204
20
86.078383
30
0.0
0
VERTEX
100
AcDbVertex
100
AcDb2dVertex
8
Layer01
10
230.789047
20
86.150731
30
0.0
0
VERTEX
100
AcDbVertex
100
AcDb2dVertex
8
Layer01
10
230.256054
20
86.22262
30
0.0
0
VERTEX
100
AcDbVertex
100
AcDb2dVertex
8
Layer01
10
229.72306
20
86.294051
30
0.0
0
VERTEX
100
AcDbVertex
100
AcDb2dVertex
8
Layer01
10
229.190067
20
86.365019
30
0.0
0
VERTEX
100
AcDbVertex
100
AcDb2dVertex
8
Layer01
10
228.657011
20
86.43553
30
0.0
0
VERTEX
100
AcDbVertex
100
AcDb2dVertex
8
Layer01
10
228.124018
20
86.505566
30
0.0
0
VERTEX
100
AcDbVertex
100
AcDb2dVertex
8
Layer01
10
227.591024
20
86.575134
30
0.0
0
VERTEX
100
AcDbVertex
100
AcDb2dVertex
8
Layer01
10
227.058031
20
86.644233
30
0.0
0
VERTEX
100
AcDbVertex
100
AcDb2dVertex
8
Layer01
10
226.525038
20
86.71286
30
0.0
0
VERTEX
100
AcDbVertex
100
AcDb2dVertex
8
Layer01
10
225.992045
20
86.781014
30
0.0
0
VERTEX
100
AcDbVertex
100
AcDb2dVertex
8
Layer01
10
225.459052
20
86.848693
30
0.0
0
VERTEX
100
AcDbVertex
100
AcDb2dVertex
8
Layer01
10
224.926059
20
86.915894
30
0.0
0
VERTEX
100
AcDbVertex
100
AcDb2dVertex
8
Layer01
10
224.393066
20
86.982617
30
0.0
0
VERTEX
100
AcDbVertex
100
AcDb2dVertex
8
Layer01
10
223.860072
20
87.048858
30
0.0
0
VERTEX
100
AcDbVertex
100
AcDb2dVertex
8
Layer01
10
223.327
20
87.114517
30
0.0
0
VERTEX
100
AcDbVertex
100
AcDb2dVertex
8
Layer01
10
222.794007
20
87.179689
30
0.0
0
VERTEX
100
AcDbVertex
100
AcDb2dVertex
8
Layer01
10
222.261014
20
87.244392
30
0.0
0
VERTEX
100
AcDbVertex
100
AcDb2dVertex
8
Layer01
10
221.72802
20
87.308629
30
0.0
0
VERTEX
100
AcDbVertex
100
AcDb2dVertex
8
Layer01
10
221.195027
20
87.372405
30
0.0
0
VERTEX
100
AcDbVertex
100
AcDb2dVertex
8
Layer01
10
220.662034
20
87.435723
30
0.0
0
VERTEX
100
AcDbVertex
100
AcDb2dVertex
8
Layer01
10
220.129041
20
87.498585
30
0.0
0
VERTEX
100
AcDbVertex
100
AcDb2dVertex
8
Layer01
10
219.596048
20
87.560989
30
0.0
0
VERTEX
100
AcDbVertex
100
AcDb2dVertex
8
Layer01
10
219.063055
20
87.622932
30
0.0
0
VERTEX
100
AcDbVertex
100
AcDb2dVertex
8
Layer01
10
218.530062
20
87.684409
30
0.0
0
VERTEX
100
AcDbVertex
100
AcDb2dVertex
8
Layer01
10
217.997005
20
87.745874
30
0.0
0
VERTEX
100
AcDbVertex
100
AcDb2dVertex
8
Layer01
10
217.464012
20
87.80681
30
0.0
0
VERTEX
100
AcDbVertex
100
AcDb2dVertex
8
Layer01
10
216.931019
20
87.867174
30
0.0
0
VERTEX
100
AcDbVertex
100
AcDb2dVertex
8
Layer01
10
216.398026
20
87.926916
30
0.0
0
VERTEX
100
AcDbVertex
100
AcDb2dVertex
8
Layer01
10
215.865032
20
87.985986
30
0.0
0
VERTEX
100
AcDbVertex
100
AcDb2dVertex
8
Layer01
10
215.332039
20
88.044333
30
0.0
0
VERTEX
100
AcDbVertex
100
AcDb2dVertex
8
Layer01
10
214.799046
20
88.10191
30
0.0
0
VERTEX
100
AcDbVertex
100
AcDb2dVertex
8
Layer01
10
214.266053
20
88.158672
30
0.0
0
VERTEX
100
AcDbVertex
100
AcDb2dVertex
8
Layer01
10
213.73306
20
88.214577
30
0.0
0
VERTEX
100
AcDbVertex
100
AcDb2dVertex
8
Layer01
10
213.200067
20
88.26959
30
0.0
0
VERTEX
100
AcDbVertex
100
AcDb2dVertex
8
Layer01
10
212.66701
20
88.322995
30
0.0
0
VERTEX
100
AcDbVertex
100
AcDb2dVertex
8
Layer01
10
212.134017
20
88.3755
30
0.0
0
VERTEX
100
AcDbVertex
100
AcDb2dVertex
8
Layer01
10
211.601024
20
88.427147
30
0.0
0
VERTEX
100
AcDbVertex
100
AcDb2dVertex
8
Layer01
10
211.068031
20
88.477975
30
0.0
0
VERTEX
100
AcDbVertex
100
AcDb2dVertex
8
Layer01
10
210.535037
20
88.528029
30
0.0
0
VERTEX
100
AcDbVertex
100
AcDb2dVertex
8
Layer01
10
210.002044
20
88.577356
30
0.0
0
VERTEX
100
AcDbVertex
100
AcDb2dVertex
8
Layer01
10
209.469051
20
88.626004
30
0.0
0
VERTEX
100
AcDbVertex
100
AcDb2dVertex
8
Layer01
10
208.936058
20
88.674024
30
0.0
0
VERTEX
100
AcDbVertex
100
AcDb2dVertex
8
Layer01
10
208.403065
20
88.721464
30
0.0
0
VERTEX
100
AcDbVertex
100
AcDb2dVertex
8
Layer01
10
207.870072
20
88.768372
30
0.0
0
VERTEX
100
AcDbVertex
100
AcDb2dVertex
8
Layer01
10
207.336999
20
88.81526
30
0.0
0
VERTEX
100
AcDbVertex
100
AcDb2dVertex
8
Layer01
10
206.804006
20
88.861663
30
0.0
0
VERTEX
100
AcDbVertex
100
AcDb2dVertex
8
Layer01
10
206.271013
20
88.907593
30
0.0
0
VERTEX
100
AcDbVertex
100
AcDb2dVertex
8
Layer01
10
205.73802
20
88.953052
30
0.0
0
VERTEX
100
AcDbVertex
100
AcDb2dVertex
8
Layer01
10
205.205027
20
88.99804
30
0.0
0
VERTEX
100
AcDbVertex
100
AcDb2dVertex
8
Layer01
10
204.672034
20
89.042554
30
0.0
0
VERTEX
100
AcDbVertex
100
AcDb2dVertex
8
Layer01
10
204.13904
20
89.08659
30
0.0
0
VERTEX
100
AcDbVertex
100
AcDb2dVertex
8
Layer01
10
203.606047
20
89.130143
30
0.0
0
VERTEX
100
AcDbVertex
100
AcDb2dVertex
8
Layer01
10
203.073054
20
89.173207
30
0.0
0
VERTEX
100
AcDbVertex
100
AcDb2dVertex
8
Layer01
10
202.540061
20
89.215774
30
0.0
0
VERTEX
100
AcDbVertex
100
AcDb2dVertex
8
Layer01
10
202.007004
20
89.257729
30
0.0
0
VERTEX
100
AcDbVertex
100
AcDb2dVertex
8
Layer01
10
201.474011
20
89.299175
30
0.0
0
VERTEX
100
AcDbVertex
100
AcDb2dVertex
8
Layer01
10
200.941018
20
89.340119
30
0.0
0
VERTEX
100
AcDbVertex
100
AcDb2dVertex
8
Layer01
10
200.408025
20
89.380563
30
0.0
0
VERTEX
100
AcDbVertex
100
AcDb2dVertex
8
Layer01
10
199.875032
20
89.420506
30
0.0
0
VERTEX
100
AcDbVertex
100
AcDb2dVertex
8
Layer01
10
199.342039
20
89.45995
30
0.0
0
VERTEX
100
AcDbVertex
100
AcDb2dVertex
8
Layer01
10
198.809045
20
89.498895
30
0.0
0
VERTEX
100
AcDbVertex
100
AcDb2dVertex
8
Layer01
10
198.276052
20
89.537344
30
0.0
0
VERTEX
100
AcDbVertex
100
AcDb2dVertex
8
Layer01
10
197.743059
20
89.575296
30
0.0
0
VERTEX
100
AcDbVertex
100
AcDb2dVertex
8
Layer01
10
197.210066
20
89.612752
30
0.0
0
VERTEX
100
AcDbVertex
100
AcDb2dVertex
8
Layer01
10
196.677009
20
89.64972
30
0.0
0
VERTEX
100
AcDbVertex
100
AcDb2dVertex
8
Layer01
10
196.144016
20
89.68619
30
0.0
0
VERTEX
100
AcDbVertex
100
AcDb2dVertex
8
Layer01
10
195.611023
20
89.722167
30
0.0
0
VERTEX
100
AcDbVertex
100
AcDb2dVertex
8
Layer01
10
195.07803
20
89.757651
30
0.0
0
VERTEX
100
AcDbVertex
100
AcDb2dVertex
8
Layer01
10
194.545037
20
89.792645
30
0.0
0
VERTEX
100
AcDbVertex
100
AcDb2dVertex
8
Layer01
10
194.012044
20
89.827148
30
0.0
0
VERTEX
100
AcDbVertex
100
AcDb2dVertex
8
Layer01
10
193.479051
20
89.861161
30
0.0
0
VERTEX
100
AcDbVertex
100
AcDb2dVertex
8
Layer01
10
192.946057
20
89.894685
30
0.0
0
VERTEX
100
AcDbVertex
100
AcDb2dVertex
8
Layer01
10
192.413064
20
89.927721
30
0.0
0
VERTEX
100
AcDbVertex
100
AcDb2dVertex
8
Layer01
10
191.880071
20
89.960269
30
0.0
0
VERTEX
100
AcDbVertex
100
AcDb2dVertex
8
Layer01
10
191.347014
20
89.992333
30
0.0
0
VERTEX
100
AcDbVertex
100
AcDb2dVertex
8
Layer01
10
190.814021
20
90.023906
30
0.0
0
VERTEX
100
AcDbVertex
100
AcDb2dVertex
8
Layer01
10
190.281028
20
90.054994
30
0.0
0
VERTEX
100
AcDbVertex
100
AcDb2dVertex
8
Layer01
10
189.748035
20
90.085598
30
0.0
0
VERTEX
100
AcDbVertex
100
AcDb2dVertex
8
Layer01
10
189.215042
20
90.115716
30
0.0
0
VERTEX
100
AcDbVertex
100
AcDb2dVertex
8
Layer01
10
188.682049
20
90.145352
30
0.0
0
VERTEX
100
AcDbVertex
100
AcDb2dVertex
8
Layer01
10
188.149056
20
90.174504
30
0.0
0
VERTEX
100
AcDbVertex
100
AcDb2dVertex
8
Layer01
10
187.616063
20
90.203174
30
0.0
0
VERTEX
100
AcDbVertex
100
AcDb2dVertex
8
Layer01
10
187.083069
20
90.231362
30
0.0
0
VERTEX
100
AcDbVertex
100
AcDb2dVertex
8
Layer01
10
186.550076
20
90.259069
30
0.0
0
VERTEX
100
AcDbVertex
100
AcDb2dVertex
8
Layer01
10
186.017004
20
90.286299
30
0.0
0
VERTEX
100
AcDbVertex
100
AcDb2dVertex
8
Layer01
10
185.484011
20
90.313045
30
0.0
0
VERTEX
100
AcDbVertex
100
AcDb2dVertex
8
Layer01
10
184.951017
20
90.339312
30
0.0
0
VERTEX
100
AcDbVertex
100
AcDb2dVertex
8
Layer01
10
184.418024
20
90.3651
30
0.0
0
VERTEX
100
AcDbVertex
100
AcDb2dVertex
8
Layer01
10
183.885031
20
90.390409
30
0.0
0
VERTEX
100
AcDbVertex
100
AcDb2dVertex
8
Layer01
10
183.352038
20
90.41524
30
0.0
0
VERTEX
100
AcDbVertex
100
AcDb2dVertex
8
Layer01
10
182.819045
20
90.439594
30
0.0
0
VERTEX
100
AcDbVertex
100
AcDb2dVertex
8
Layer01
10
182.286052
20
90.46347
30
0.0
0
VERTEX
100
AcDbVertex
100
AcDb2dVertex
8
Layer01
10
181.753059
20
90.48687
30
0.0
0
VERTEX
100
AcDbVertex
100
AcDb2dVertex
8
Layer01
10
181.220065
20
90.509793
30
0.0
0
VERTEX
100
AcDbVertex
100
AcDb2dVertex
8
Layer01
10
180.687009
20
90.532243
30
0.0
0
VERTEX
100
AcDbVertex
100
AcDb2dVertex
8
Layer01
10
180.154016
20
90.554215
30
0.0
0
VERTEX
100
AcDbVertex
100
AcDb2dVertex
8
Layer01
10
179.621022
20
90.57571
30
0.0
0
VERTEX
100
AcDbVertex
100
AcDb2dVertex
8
Layer01
10
179.088029
20
90.59673
30
0.0
0
VERTEX
100
AcDbVertex
100
AcDb2dVertex
8
Layer01
10
178.555036
20
90.617275
30
0.0
0
VERTEX
100
AcDbVertex
100
AcDb2dVertex
8
Layer01
10
178.022043
20
90.637344
30
0.0
0
VERTEX
100
AcDbVertex
100
AcDb2dVertex
8
Layer01
10
177.48905
20
90.656938
30
0.0
0
VERTEX
100
AcDbVertex
100
AcDb2dVertex
8
Layer01
10
176.956057
20
90.676056
30
0.0
0
VERTEX
100
AcDbVertex
100
AcDb2dVertex
8
Layer01
10
176.423064
20
90.694699
30
0.0
0
VERTEX
100
AcDbVertex
100
AcDb2dVertex
8
Layer01
10
175.890071
20
90.712867
30
0.0
0
VERTEX
100
AcDbVertex
100
AcDb2dVertex
8
Layer01
10
175.357014
20
90.730561
30
0.0
0
VERTEX
100
AcDbVertex
100
AcDb2dVertex
8
Layer01
10
174.824021
20
90.747778
30
0.0
0
VERTEX
100
AcDbVertex
100
AcDb2dVertex
8
Layer01
10
174.291028
20
90.764518
30
0.0
0
VERTEX
100
AcDbVertex
100
AcDb2dVertex
8
Layer01
10
173.758034
20
90.780783
30
0.0
0
VERTEX
100
AcDbVertex
100
AcDb2dVertex
8
Layer01
10
173.225041
20
90.79657
30
0.0
0
VERTEX
100
AcDbVertex
100
AcDb2dVertex
8
Layer01
10
172.692048
20
90.81188
30
0.0
0
VERTEX
100
AcDbVertex
100
AcDb2dVertex
8
Layer01
10
172.159055
20
90.826714
30
0.0
0
VERTEX
100
AcDbVertex
100
AcDb2dVertex
8
Layer01
10
171.626062
20
90.841069
30
0.0
0
VERTEX
100
AcDbVertex
100
AcDb2dVertex
8
Layer01
10
171.093069
20
90.854945
30
0.0
0
VERTEX
100
AcDbVertex
100
AcDb2dVertex
8
Layer01
10
170.560076
20
90.868343
30
0.0
0
VERTEX
100
AcDbVertex
100
AcDb2dVertex
8
Layer01
10
170.027003
20
90.881375
30
0.0
0
VERTEX
100
AcDbVertex
100
AcDb2dVertex
8
Layer01
10
169.49401
20
90.893917
30
0.0
0
VERTEX
100
AcDbVertex
100
AcDb2dVertex
8
Layer01
10
168.961017
20
90.905961
30
0.0
0
VERTEX
100
AcDbVertex
100
AcDb2dVertex
8
Layer01
10
168.428024
20
90.917501
30
0.0
0
VERTEX
100
AcDbVertex
100
AcDb2dVertex
8
Layer01
10
167.89503
20
90.928528
30
0.0
0
VERTEX
100
AcDbVertex
100
AcDb2dVertex
8
Layer01
10
167.362037
20
90.939038
30
0.0
0
VERTEX
100
AcDbVertex
100
AcDb2dVertex
8
Layer01
10
166.829044
20
90.949026
30
0.0
0
VERTEX
100
AcDbVertex
100
AcDb2dVertex
8
Layer01
10
166.296051
20
90.95849
30
0.0
0
VERTEX
100
AcDbVertex
100
AcDb2dVertex
8
Layer01
10
165.763058
20
90.96743
30
0.0
0
VERTEX
100
AcDbVertex
100
AcDb2dVertex
8
Layer01
10
165.230065
20
90.97585
30
0.0
0
VERTEX
100
AcDbVertex
100
AcDb2dVertex
8
Layer01
10
164.697008
20
90.983293
30
0.0
0
VERTEX
100
AcDbVertex
100
AcDb2dVertex
8
Layer01
10
164.164015
20
90.990264
30
0.0
0
VERTEX
100
AcDbVertex
100
AcDb2dVertex
8
Layer01
10
163.631022
20
90.996812
30
0.0
0
VERTEX
100
AcDbVertex
100
AcDb2dVertex
8
Layer01
10
163.098029
20
91.002984
30
0.0
0
VERTEX
100
AcDbVertex
100
AcDb2dVertex
8
Layer01
10
162.565036
20
91.008829
30
0.0
0
VERTEX
100
AcDbVertex
100
AcDb2dVertex
8
Layer01
10
162.032042
20
91.014393
30
0.0
0
VERTEX
100
AcDbVertex
100
AcDb2dVertex
8
Layer01
10
161.499049
20
91.019721
30
0.0
0
VERTEX
100
AcDbVertex
100
AcDb2dVertex
8
Layer01
10
160.966056
20
91.024857
30
0.0
0
VERTEX
100
AcDbVertex
100
AcDb2dVertex
8
Layer01
10
160.433063
20
91.029837
30
0.0
0
VERTEX
100
AcDbVertex
100
AcDb2dVertex
8
Layer01
10
159.90007
20
91.034694
30
0.0
0
VERTEX
100
AcDbVertex
100
AcDb2dVertex
8
Layer01
10
159.367013
20
91.040165
30
0.0
0
VERTEX
100
AcDbVertex
100
AcDb2dVertex
8
Layer01
10
158.83402
20
91.045505
30
0.0
0
VERTEX
100
AcDbVertex
100
AcDb2dVertex
8
Layer01
10
158.301027
20
91.050675
30
0.0
0
VERTEX
100
AcDbVertex
100
AcDb2dVertex
8
Layer01
10
157.768034
20
91.055628
30
0.0
0
VERTEX
100
AcDbVertex
100
AcDb2dVertex
8
Layer01
10
157.235041
20
91.060314
30
0.0
0
VERTEX
100
AcDbVertex
100
AcDb2dVertex
8
Layer01
10
156.702048
20
91.064682
30
0.0
0
VERTEX
100
AcDbVertex
100
AcDb2dVertex
8
Layer01
10
156.169054
20
91.068677
30
0.0
0
VERTEX
100
AcDbVertex
100
AcDb2dVertex
8
Layer01
10
155.636061
20
91.072242
30
0.0
0
VERTEX
100
AcDbVertex
100
AcDb2dVertex
8
Layer01
10
155.103068
20
91.075324
30
0.0
0
VERTEX
100
AcDbVertex
100
AcDb2dVertex
8
Layer01
10
154.570075
20
91.077867
30
0.0
0
VERTEX
100
AcDbVertex
100
AcDb2dVertex
8
Layer01
10
154.037002
20
91.079347
30
0.0
0
VERTEX
100
AcDbVertex
100
AcDb2dVertex
8
Layer01
10
153.504009
20
91.080225
30
0.0
0
VERTEX
100
AcDbVertex
100
AcDb2dVertex
8
Layer01
10
152.971016
20
91.080493
30
0.0
0
VERTEX
100
AcDbVertex
100
AcDb2dVertex
8
Layer01
10
152.438023
20
91.080144
30
0.0
0
VERTEX
100
AcDbVertex
100
AcDb2dVertex
8
Layer01
10
151.90503
20
91.079175
30
0.0
0
VERTEX
100
AcDbVertex
100
AcDb2dVertex
8
Layer01
10
151.372037
20
91.077584
30
0.0
0
VERTEX
100
AcDbVertex
100
AcDb2dVertex
8
Layer01
10
150.839044
20
91.075371
30
0.0
0
VERTEX
100
AcDbVertex
100
AcDb2dVertex
8
Layer01
10
150.30605
20
91.072538
30
0.0
0
VERTEX
100
AcDbVertex
100
AcDb2dVertex
8
Layer01
10
149.773057
20
91.069088
30
0.0
0
VERTEX
100
AcDbVertex
100
AcDb2dVertex
8
Layer01
10
149.240064
20
91.065023
30
0.0
0
VERTEX
100
AcDbVertex
100
AcDb2dVertex
8
Layer01
10
148.707007
20
91.060464
30
0.0
0
VERTEX
100
AcDbVertex
100
AcDb2dVertex
8
Layer01
10
148.174014
20
91.05529
30
0.0
0
VERTEX
100
AcDbVertex
100
AcDb2dVertex
8
Layer01
10
147.641021
20
91.049493
30
0.0
0
VERTEX
100
AcDbVertex
100
AcDb2dVertex
8
Layer01
10
147.108028
20
91.04307
30
0.0
0
VERTEX
100
AcDbVertex
100
AcDb2dVertex
8
Layer01
10
146.575035
20
91.036013
30
0.0
0
VERTEX
100
AcDbVertex
100
AcDb2dVertex
8
Layer01
10
146.042042
20
91.028318
30
0.0
0
VERTEX
100
AcDbVertex
100
AcDb2dVertex
8
Layer01
10
145.509049
20
91.01998
30
0.0
0
VERTEX
100
AcDbVertex
100
AcDb2dVertex
8
Layer01
10
144.976056
20
91.010991
30
0.0
0
VERTEX
100
AcDbVertex
100
AcDb2dVertex
8
Layer01
10
144.443062
20
91.001348
30
0.0
0
VERTEX
100
AcDbVertex
100
AcDb2dVertex
8
Layer01
10
143.910069
20
90.991043
30
0.0
0
VERTEX
100
AcDbVertex
100
AcDb2dVertex
8
Layer01
10
143.377013
20
90.98007
30
0.0
0
VERTEX
100
AcDbVertex
100
AcDb2dVertex
8
Layer01
10
142.844019
20
90.968425
30
0.0
0
VERTEX
100
AcDbVertex
100
AcDb2dVertex
8
Layer01
10
142.311026
20
90.956103
30
0.0
0
VERTEX
100
AcDbVertex
100
AcDb2dVertex
8
Layer01
10
141.778033
20
90.943097
30
0.0
0
VERTEX
100
AcDbVertex
100
AcDb2dVertex
8
Layer01
10
141.24504
20
90.929402
30
0.0
0
VERTEX
100
AcDbVertex
100
AcDb2dVertex
8
Layer01
10
140.712047
20
90.915012
30
0.0
0
VERTEX
100
AcDbVertex
100
AcDb2dVertex
8
Layer01
10
140.179054
20
90.899921
30
0.0
0
VERTEX
100
AcDbVertex
100
AcDb2dVertex
8
Layer01
10
139.646061
20
90.884124
30
0.0
0
VERTEX
100
AcDbVertex
100
AcDb2dVertex
8
Layer01
10
139.113067
20
90.867614
30
0.0
0
VERTEX
100
AcDbVertex
100
AcDb2dVertex
8
Layer01
10
138.580074
20
90.850385
30
0.0
0
VERTEX
100
AcDbVertex
100
AcDb2dVertex
8
Layer01
10
138.047002
20
90.832431
30
0.0
0
VERTEX
100
AcDbVertex
100
AcDb2dVertex
8
Layer01
10
137.514009
20
90.813749
30
0.0
0
VERTEX
100
AcDbVertex
100
AcDb2dVertex
8
Layer01
10
136.981016
20
90.794331
30
0.0
0
VERTEX
100
AcDbVertex
100
AcDb2dVertex
8
Layer01
10
136.448022
20
90.774171
30
0.0
0
VERTEX
100
AcDbVertex
100
AcDb2dVertex
8
Layer01
10
135.915029
20
90.753263
30
0.0
0
VERTEX
100
AcDbVertex
100
AcDb2dVertex
8
Layer01
10
135.382036
20
90.731601
30
0.0
0
VERTEX
100
AcDbVertex
100
AcDb2dVertex
8
Layer01
10
134.849043
20
90.709179
30
0.0
0
VERTEX
100
AcDbVertex
100
AcDb2dVertex
8
Layer01
10
134.31605
20
90.685991
30
0.0
0
VERTEX
100
AcDbVertex
100
AcDb2dVertex
8
Layer01
10
133.783057
20
90.662031
30
0.0
0
VERTEX
100
AcDbVertex
100
AcDb2dVertex
8
Layer01
10
133.250064
20
90.637293
30
0.0
0
VERTEX
100
AcDbVertex
100
AcDb2dVertex
8
Layer01
10
132.716999
20
90.611767
30
0.0
0
VERTEX
100
AcDbVertex
100
AcDb2dVertex
8
Layer01
10
132.183998
20
90.585453
30
0.0
0
VERTEX
100
AcDbVertex
100
AcDb2dVertex
8
Layer01
10
131.650997
20
90.558343
30
0.0
0
VERTEX
100
AcDbVertex
100
AcDb2dVertex
8
Layer01
10
131.117996
20
90.53043
30
0.0
0
VERTEX
100
AcDbVertex
100
AcDb2dVertex
8
Layer01
10
130.584995
20
90.501708
30
0.0
0
VERTEX
100
AcDbVertex
100
AcDb2dVertex
8
Layer01
10
130.051994
20
90.47217
30
0.0
0
VERTEX
100
AcDbVertex
100
AcDb2dVertex
8
Layer01
10
129.518992
20
90.44181
30
0.0
0
VERTEX
100
AcDbVertex
100
AcDb2dVertex
8
Layer01
10
128.985991
20
90.410622
30
0.0
0
VERTEX
100
AcDbVertex
100
AcDb2dVertex
8
Layer01
10
128.45299
20
90.3786
30
0.0
0
VERTEX
100
AcDbVertex
100
AcDb2dVertex
8
Layer01
10
127.386996
20
90.312029
30
0.0
0
VERTEX
100
AcDbVertex
100
AcDb2dVertex
8
Layer01
10
126.853995
20
90.277466
30
0.0
0
VERTEX
100
AcDbVertex
100
AcDb2dVertex
8
Layer01
10
126.320994
20
90.242043
30
0.0
0
VERTEX
100
AcDbVertex
100
AcDb2dVertex
8
Layer01
10
125.787993
20
90.205755
30
0.0
0
VERTEX
100
AcDbVertex
100
AcDb2dVertex
8
Layer01
10
125.254992
20
90.168595
30
0.0
0
VERTEX
100
AcDbVertex
100
AcDb2dVertex
8
Layer01
10
124.721991
20
90.130556
30
0.0
0
VERTEX
100
AcDbVertex
100
AcDb2dVertex
8
Layer01
10
124.18899
20
90.091633
30
0.0
0
VERTEX
100
AcDbVertex
100
AcDb2dVertex
8
Layer01
10
123.655988
20
90.051819
30
0.0
0
VERTEX
100
AcDbVertex
100
AcDb2dVertex
8
Layer01
10
123.122987
20
90.011108
30
0.0
0
VERTEX
100
AcDbVertex
100
AcDb2dVertex
8
Layer01
10
122.057001
20
89.926969
30
0.0
0
VERTEX
100
AcDbVertex
100
AcDb2dVertex
8
Layer01
10
121.524
20
89.883528
30
0.0
0
VERTEX
100
AcDbVertex
100
AcDb2dVertex
8
Layer01
10
120.990999
20
89.839164
30
0.0
0
VERTEX
100
AcDbVertex
100
AcDb2dVertex
8
Layer01
10
120.457998
20
89.793872
30
0.0
0
VERTEX
100
AcDbVertex
100
AcDb2dVertex
8
Layer01
10
119.924997
20
89.747645
30
0.0
0
VERTEX
100
AcDbVertex
100
AcDb2dVertex
8
Layer01
10
119.391996
20
89.700477
30
0.0
0
VERTEX
100
AcDbVertex
100
AcDb2dVertex
8
Layer01
10
118.858995
20
89.652361
30
0.0
0
VERTEX
100
AcDbVertex
100
AcDb2dVertex
8
Layer01
10
118.325994
20
89.603291
30
0.0
0
VERTEX
100
AcDbVertex
100
AcDb2dVertex
8
Layer01
10
117.792993
20
89.553261
30
0.0
0
VERTEX
100
AcDbVertex
100
AcDb2dVertex
8
Layer01
10
116.726998
20
89.450268
30
0.0
0
VERTEX
100
AcDbVertex
100
AcDb2dVertex
8
Layer01
10
116.193997
20
89.397293
30
0.0
0
VERTEX
100
AcDbVertex
100
AcDb2dVertex
8
Layer01
10
115.660996
20
89.343337
30
0.0
0
VERTEX
100
AcDbVertex
100
AcDb2dVertex
8
Layer01
10
115.127995
20
89.288396
30
0.0
0
VERTEX
100
AcDbVertex
100
AcDb2dVertex
8
Layer01
10
114.594994
20
89.232465
30
0.0
0
VERTEX
100
AcDbVertex
100
AcDb2dVertex
8
Layer01
10
114.061993
20
89.175538
30
0.0
0
VERTEX
100
AcDbVertex
100
AcDb2dVertex
8
Layer01
10
113.528992
20
89.117611
30
0.0
0
VERTEX
100
AcDbVertex
100
AcDb2dVertex
8
Layer01
10
112.995991
20
89.058678
30
0.0
0
VERTEX
100
AcDbVertex
100
AcDb2dVertex
8
Layer01
10
112.46299
20
88.998732
30
0.0
0
VERTEX
100
AcDbVertex
100
AcDb2dVertex
8
Layer01
10
111.396995
20
88.875904
30
0.0
0
VERTEX
100
AcDbVertex
100
AcDb2dVertex
8
Layer01
10
110.863994
20
88.812994
30
0.0
0
VERTEX
100
AcDbVertex
100
AcDb2dVertex
8
Layer01
10
110.330993
20
88.749017
30
0.0
0
VERTEX
100
AcDbVertex
100
AcDb2dVertex
8
Layer01
10
109.797992
20
88.683952
30
0.0
0
VERTEX
100
AcDbVertex
100
AcDb2dVertex
8
Layer01
10
109.264991
20
88.61778
30
0.0
0
VERTEX
100
AcDbVertex
100
AcDb2dVertex
8
Layer01
10
108.73199
20
88.55048
30
0.0
0
VERTEX
100
AcDbVertex
100
AcDb2dVertex
8
Layer01
10
108.198989
20
88.482035
30
0.0
0
VERTEX
100
AcDbVertex
100
AcDb2dVertex
8
Layer01
10
107.665988
20
88.412425
30
0.0
0
VERTEX
100
AcDbVertex
100
AcDb2dVertex
8
Layer01
10
107.132987
20
88.341634
30
0.0
0
VERTEX
100
AcDbVertex
100
AcDb2dVertex
8
Layer01
10
106.067001
20
88.196235
30
0.0
0
VERTEX
100
AcDbVertex
100
AcDb2dVertex
8
Layer01
10
105.533999
20
88.121616
30
0.0
0
VERTEX
100
AcDbVertex
100
AcDb2dVertex
8
Layer01
10
105.000998
20
88.045803
30
0.0
0
VERTEX
100
AcDbVertex
100
AcDb2dVertex
8
Layer01
10
104.467997
20
87.968805
30
0.0
0
VERTEX
100
AcDbVertex
100
AcDb2dVertex
8
Layer01
10
103.934996
20
87.890632
30
0.0
0
VERTEX
100
AcDbVertex
100
AcDb2dVertex
8
Layer01
10
103.401995
20
87.811297
30
0.0
0
VERTEX
100
AcDbVertex
100
AcDb2dVertex
8
Layer01
10
102.868994
20
87.73081
30
0.0
0
VERTEX
100
AcDbVertex
100
AcDb2dVertex
8
Layer01
10
102.335993
20
87.649186
30
0.0
0
VERTEX
100
AcDbVertex
100
AcDb2dVertex
8
Layer01
10
101.802992
20
87.566434
30
0.0
0
VERTEX
100
AcDbVertex
100
AcDb2dVertex
8
Layer01
10
100.736998
20
87.397755
30
0.0
0
VERTEX
100
AcDbVertex
100
AcDb2dVertex
8
Layer01
10
100.203997
20
87.311834
30
0.0
0
VERTEX
100
AcDbVertex
100
AcDb2dVertex
8
Layer01
10
99.670995
20
87.224802
30
0.0
0
VERTEX
100
AcDbVertex
100
AcDb2dVertex
8
Layer01
10
99.137994
20
87.136655
30
0.0
0
VERTEX
100
AcDbVertex
100
AcDb2dVertex
8
Layer01
10
98.604993
20
87.047386
30
0.0
0
VERTEX
100
AcDbVertex
100
AcDb2dVertex
8
Layer01
10
98.071992
20
86.95699
30
0.0
0
VERTEX
100
AcDbVertex
100
AcDb2dVertex
8
Layer01
10
97.538991
20
86.86546
30
0.0
0
VERTEX
100
AcDbVertex
100
AcDb2dVertex
8
Layer01
10
97.00599
20
86.772787
30
0.0
0
VERTEX
100
AcDbVertex
100
AcDb2dVertex
8
Layer01
10
96.472989
20
86.678964
30
0.0
0
VERTEX
100
AcDbVertex
100
AcDb2dVertex
8
Layer01
10
95.407003
20
86.487797
30
0.0
0
VERTEX
100
AcDbVertex
100
AcDb2dVertex
8
Layer01
10
94.874002
20
86.390436
30
0.0
0
VERTEX
100
AcDbVertex
100
AcDb2dVertex
8
Layer01
10
94.341001
20
86.291897
30
0.0
0
VERTEX
100
AcDbVertex
100
AcDb2dVertex
8
Layer01
10
93.807999
20
86.192174
30
0.0
0
VERTEX
100
AcDbVertex
100
AcDb2dVertex
8
Layer01
10
93.274998
20
86.091263
30
0.0
0
VERTEX
100
AcDbVertex
100
AcDb2dVertex
8
Layer01
10
92.741997
20
85.989157
30
0.0
0
VERTEX
100
AcDbVertex
100
AcDb2dVertex
8
Layer01
10
92.208996
20
85.88585
30
0.0
0
VERTEX
100
AcDbVertex
100
AcDb2dVertex
8
Layer01
10
91.675995
20
85.781338
30
0.0
0
VERTEX
100
AcDbVertex
100
AcDb2dVertex
8
Layer01
10
91.142994
20
85.675613
30
0.0
0
VERTEX
100
AcDbVertex
100
AcDb2dVertex
8
Layer01
10
90.077
20
85.460342
30
0.0
0
VERTEX
100
AcDbVertex
100
AcDb2dVertex
8
Layer01
10
89.543999
20
85.350795
30
0.0
0
VERTEX
100
AcDbVertex
100
AcDb2dVertex
8
Layer01
10
89.010998
20
85.240036
30
0.0
0
VERTEX
100
AcDbVertex
100
AcDb2dVertex
8
Layer01
10
88.477997
20
85.128072
30
0.0
0
VERTEX
100
AcDbVertex
100
AcDb2dVertex
8
Layer01
10
87.944996
20
85.014905
30
0.0
0
VERTEX
100
AcDbVertex
100
AcDb2dVertex
8
Layer01
10
87.411994
20
84.900537
30
0.0
0
VERTEX
100
AcDbVertex
100
AcDb2dVertex
8
Layer01
10
86.878993
20
84.784967
30
0.0
0
VERTEX
100
AcDbVertex
100
AcDb2dVertex
8
Layer01
10
86.345992
20
84.66819
30
0.0
0
VERTEX
100
AcDbVertex
100
AcDb2dVertex
8
Layer01
10
85.812991
20
84.550199
30
0.0
0
VERTEX
100
AcDbVertex
100
AcDb2dVertex
8
Layer01
10
84.746997
20
84.311252
30
0.0
0
VERTEX
100
AcDbVertex
100
AcDb2dVertex
8
Layer01
10
84.213996
20
84.190203
30
0.0
0
VERTEX
100
AcDbVertex
100
AcDb2dVertex
8
Layer01
10
83.680995
20
84.067755
30
0.0
0
VERTEX
100
AcDbVertex
100
AcDb2dVertex
8
Layer01
10
83.147994
20
83.943828
30
0.0
0
VERTEX
100
AcDbVertex
100
AcDb2dVertex
8
Layer01
10
82.614993
20
83.818341
30
0.0
0
VERTEX
100
AcDbVertex
100
AcDb2dVertex
8
Layer01
10
82.081992
20
83.691215
30
0.0
0
VERTEX
100
AcDbVertex
100
AcDb2dVertex
8
Layer01
10
81.548991
20
83.562374
30
0.0
0
VERTEX
100
AcDbVertex
100
AcDb2dVertex
8
Layer01
10
81.015989
20
83.431747
30
0.0
0
VERTEX
100
AcDbVertex
100
AcDb2dVertex
8
Layer01
10
80.482988
20
83.299272
30
0.0
0
VERTEX
100
AcDbVertex
100
AcDb2dVertex
8
Layer01
10
79.417002
20
83.0274
30
0.0
0
VERTEX
100
AcDbVertex
100
AcDb2dVertex
8
Layer01
10
78.884001
20
82.888009
30
0.0
0
VERTEX
100
AcDbVertex
100
AcDb2dVertex
8
Layer01
10
78.351
20
82.746791
30
0.0
0
VERTEX
100
AcDbVertex
100
AcDb2dVertex
8
Layer01
10
77.817999
20
82.60382
30
0.0
0
VERTEX
100
AcDbVertex
100
AcDb2dVertex
8
Layer01
10
77.284998
20
82.459176
30
0.0
0
VERTEX
100
AcDbVertex
100
AcDb2dVertex
8
Layer01
10
76.751997
20
82.312945
30
0.0
0
VERTEX
100
AcDbVertex
100
AcDb2dVertex
8
Layer01
10
76.218996
20
82.165214
30
0.0
0
VERTEX
100
AcDbVertex
100
AcDb2dVertex
8
Layer01
10
75.685995
20
82.016072
30
0.0
0
VERTEX
100
AcDbVertex
100
AcDb2dVertex
8
Layer01
10
75.152993
20
81.865609
30
0.0
0
VERTEX
100
AcDbVertex
100
AcDb2dVertex
8
Layer01
10
74.086999
20
81.561841
30
0.0
0
VERTEX
100
AcDbVertex
100
AcDb2dVertex
8
Layer01
10
73.553998
20
81.408631
30
0.0
0
VERTEX
100
AcDbVertex
100
AcDb2dVertex
8
Layer01
10
73.020997
20
81.25429
30
0.0
0
VERTEX
100
AcDbVertex
100
AcDb2dVertex
8
Layer01
10
72.487996
20
81.098824
30
0.0
0
VERTEX
100
AcDbVertex
100
AcDb2dVertex
8
Layer01
10
71.954995
20
80.94223
30
0.0
0
VERTEX
100
AcDbVertex
100
AcDb2dVertex
8
Layer01
10
71.421994
20
80.784506
30
0.0
0
VERTEX
100
AcDbVertex
100
AcDb2dVertex
8
Layer01
10
70.888993
20
80.625642
30
0.0
0
VERTEX
100
AcDbVertex
100
AcDb2dVertex
8
Layer01
10
70.355992
20
80.465628
30
0.0
0
VERTEX
100
AcDbVertex
100
AcDb2dVertex
8
Layer01
10
69.822991
20
80.304449
30
0.0
0
VERTEX
100
AcDbVertex
100
AcDb2dVertex
8
Layer01
10
68.756996
20
79.978348
30
0.0
0
VERTEX
100
AcDbVertex
100
AcDb2dVertex
8
Layer01
10
68.223995
20
79.813402
30
0.0
0
VERTEX
100
AcDbVertex
100
AcDb2dVertex
8
Layer01
10
67.690994
20
79.64725
30
0.0
0
VERTEX
100
AcDbVertex
100
AcDb2dVertex
8
Layer01
10
67.157993
20
79.479884
30
0.0
0
VERTEX
100
AcDbVertex
100
AcDb2dVertex
8
Layer01
10
66.624992
20
79.311299
30
0.0
0
VERTEX
100
AcDbVertex
100
AcDb2dVertex
8
Layer01
10
66.091991
20
79.141486
30
0.0
0
VERTEX
100
AcDbVertex
100
AcDb2dVertex
8
Layer01
10
65.55899
20
78.970436
30
0.0
0
VERTEX
100
AcDbVertex
100
AcDb2dVertex
8
Layer01
10
65.025989
20
78.79814
30
0.0
0
VERTEX
100
AcDbVertex
100
AcDb2dVertex
8
Layer01
10
64.492988
20
78.624585
30
0.0
0
VERTEX
100
AcDbVertex
100
AcDb2dVertex
8
Layer01
10
63.426997
20
78.27371
30
0.0
0
VERTEX
100
AcDbVertex
100
AcDb2dVertex
8
Layer01
10
62.893996
20
78.096353
30
0.0
0
VERTEX
100
AcDbVertex
100
AcDb2dVertex
8
Layer01
10
62.360995
20
77.917674
30
0.0
0
VERTEX
100
AcDbVertex
100
AcDb2dVertex
8
Layer01
10
61.827994
20
77.737653
30
0.0
0
VERTEX
100
AcDbVertex
100
AcDb2dVertex
8
Layer01
10
61.294993
20
77.556269
30
0.0
0
VERTEX
100
AcDbVertex
100
AcDb2dVertex
8
Layer01
10
60.761992
20
77.3735
30
0.0
0
VERTEX
100
AcDbVertex
100
AcDb2dVertex
8
Layer01
10
60.228991
20
77.189324
30
0.0
0
VERTEX
100
AcDbVertex
100
AcDb2dVertex
8
Layer01
10
59.69599
20
77.003718
30
0.0
0
VERTEX
100
AcDbVertex
100
AcDb2dVertex
8
Layer01
10
59.162989
20
76.81666
30
0.0
0
VERTEX
100
AcDbVertex
100
AcDb2dVertex
8
Layer01
10
58.096999
20
76.437808
30
0.0
0
VERTEX
100
AcDbVertex
100
AcDb2dVertex
8
Layer01
10
57.563998
20
76.245987
30
0.0
0
VERTEX
100
AcDbVertex
100
AcDb2dVertex
8
Layer01
10
57.030996
20
76.052668
30
0.0
0
VERTEX
100
AcDbVertex
100
AcDb2dVertex
8
Layer01
10
56.497995
20
75.857847
30
0.0
0
VERTEX
100
AcDbVertex
100
AcDb2dVertex
8
Layer01
10
55.964994
20
75.661521
30
0.0
0
VERTEX
100
AcDbVertex
100
AcDb2dVertex
8
Layer01
10
55.431993
20
75.463683
30
0.0
0
VERTEX
100
AcDbVertex
100
AcDb2dVertex
8
Layer01
10
54.898992
20
75.264322
30
0.0
0
VERTEX
100
AcDbVertex
100
AcDb2dVertex
8
Layer01
10
54.365991
20
75.063424
30
0.0
0
VERTEX
100
AcDbVertex
100
AcDb2dVertex
8
Layer01
10
53.83299
20
74.86097
30
0.0
0
VERTEX
100
AcDbVertex
100
AcDb2dVertex
8
Layer01
10
52.767
20
74.451865
30
0.0
0
VERTEX
100
AcDbVertex
100
AcDb2dVertex
8
Layer01
10
52.233999
20
74.245097
30
0.0
0
VERTEX
100
AcDbVertex
100
AcDb2dVertex
8
Layer01
10
51.700998
20
74.036543
30
0.0
0
VERTEX
100
AcDbVertex
100
AcDb2dVertex
8
Layer01
10
51.167996
20
73.82611
30
0.0
0
VERTEX
100
AcDbVertex
100
AcDb2dVertex
8
Layer01
10
50.634995
20
73.613699
30
0.0
0
VERTEX
100
AcDbVertex
100
AcDb2dVertex
8
Layer01
10
50.101994
20
73.399209
30
0.0
0
VERTEX
100
AcDbVertex
100
AcDb2dVertex
8
Layer01
10
49.568993
20
73.182536
30
0.0
0
VERTEX
100
AcDbVertex
100
AcDb2dVertex
8
Layer01
10
49.035992
20
72.963577
30
0.0
0
VERTEX
100
AcDbVertex
100
AcDb2dVertex
8
Layer01
10
48.502991
20
72.742225
30
0.0
0
VERTEX
100
AcDbVertex
100
AcDb2dVertex
8
Layer01
10
47.437001
20
72.291481
30
0.0
0
VERTEX
100
AcDbVertex
100
AcDb2dVertex
8
Layer01
10
46.904
20
72.061918
30
0.0
0
VERTEX
100
AcDbVertex
100
AcDb2dVertex
8
Layer01
10
46.370999
20
71.829628
30
0.0
0
VERTEX
100
AcDbVertex
100
AcDb2dVertex
8
Layer01
10
45.837998
20
71.594552
30
0.0
0
VERTEX
100
AcDbVertex
100
AcDb2dVertex
8
Layer01
10
45.304997
20
71.356632
30
0.0
0
VERTEX
100
AcDbVertex
100
AcDb2dVertex
8
Layer01
10
44.771995
20
71.115809
30
0.0
0
VERTEX
100
AcDbVertex
100
AcDb2dVertex
8
Layer01
10
44.238994
20
70.872028
30
0.0
0
VERTEX
100
AcDbVertex
100
AcDb2dVertex
8
Layer01
10
43.705993
20
70.625233
30
0.0
0
VERTEX
100
AcDbVertex
100
AcDb2dVertex
8
Layer01
10
43.172992
20
70.37537
30
0.0
0
VERTEX
100
AcDbVertex
100
AcDb2dVertex
8
Layer01
10
42.106998
20
69.866297
30
0.0
0
VERTEX
100
AcDbVertex
100
AcDb2dVertex
8
Layer01
10
41.573997
20
69.606966
30
0.0
0
VERTEX
100
AcDbVertex
100
AcDb2dVertex
8
Layer01
10
41.040996
20
69.344329
30
0.0
0
VERTEX
100
AcDbVertex
100
AcDb2dVertex
8
Layer01
10
40.507995
20
69.078323
30
0.0
0
VERTEX
100
AcDbVertex
100
AcDb2dVertex
8
Layer01
10
39.974994
20
68.808882
30
0.0
0
VERTEX
100
AcDbVertex
100
AcDb2dVertex
8
Layer01
10
39.441993
20
68.535939
30
0.0
0
VERTEX
100
AcDbVertex
100
AcDb2dVertex
8
Layer01
10
38.908991
20
68.259426
30
0.0
0
VERTEX
100
AcDbVertex
100
AcDb2dVertex
8
Layer01
10
38.37599
20
67.979272
30
0.0
0
VERTEX
100
AcDbVertex
100
AcDb2dVertex
8
Layer01
10
37.842989
20
67.695407
30
0.0
0
VERTEX
100
AcDbVertex
100
AcDb2dVertex
8
Layer01
10
36.776999
20
67.11671
30
0.0
0
VERTEX
100
AcDbVertex
100
AcDb2dVertex
8
Layer01
10
36.243998
20
66.821684
30
0.0
0
VERTEX
100
AcDbVertex
100
AcDb2dVertex
8
Layer01
10
35.710997
20
66.522574
30
0.0
0
VERTEX
100
AcDbVertex
100
AcDb2dVertex
8
Layer01
10
35.177996
20
66.219266
30
0.0
0
VERTEX
100
AcDbVertex
100
AcDb2dVertex
8
Layer01
10
34.644995
20
65.911652
30
0.0
0
VERTEX
100
AcDbVertex
100
AcDb2dVertex
8
Layer01
10
34.111994
20
65.599622
30
0.0
0
VERTEX
100
AcDbVertex
100
AcDb2dVertex
8
Layer01
10
33.578993
20
65.283074
30
0.0
0
VERTEX
100
AcDbVertex
100
AcDb2dVertex
8
Layer01
10
33.045994
20
64.961912
30
0.0
0
VERTEX
100
AcDbVertex
100
AcDb2dVertex
8
Layer01
10
32.512994
20
64.636042
30
0.0
0
VERTEX
100
AcDbVertex
100
AcDb2dVertex
8
Layer01
10
31.447
20
63.968395
30
0.0
0
VERTEX
100
AcDbVertex
100
AcDb2dVertex
8
Layer01
10
30.914001
20
63.626588
30
0.0
0
VERTEX
100
AcDbVertex
100
AcDb2dVertex
8
Layer01
10
30.381002
20
63.280016
30
0.0
0
VERTEX
100
AcDbVertex
100
AcDb2dVertex
8
Layer01
10
29.848003
20
62.928738
30
0.0
0
VERTEX
100
AcDbVertex
100
AcDb2dVertex
8
Layer01
10
29.315004
20
62.572812
30
0.0
0
VERTEX
100
AcDbVertex
100
AcDb2dVertex
8
Layer01
10
28.782005
20
62.212294
30
0.0
0
VERTEX
100
AcDbVertex
100
AcDb2dVertex
8
Layer01
10
28.249006
20
61.847235
30
0.0
0
VERTEX
100
AcDbVertex
100
AcDb2dVertex
8
Layer01
10
27.716007
20
61.477678
30
0.0
0
VERTEX
100
AcDbVertex
100
AcDb2dVertex
8
Layer01
10
27.183007
20
61.103653
30
0.0
0
VERTEX
100
AcDbVertex
100
AcDb2dVertex
8
Layer01
10
26.650008
20
60.725176
30
0.0
0
VERTEX
100
AcDbVertex
100
AcDb2dVertex
8
Layer01
10
26.117001
20
60.34315
30
0.0
0
VERTEX
100
AcDbVertex
100
AcDb2dVertex
8
Layer01
10
25.584002
20
59.956547
30
0.0
0
VERTEX
100
AcDbVertex
100
AcDb2dVertex
8
Layer01
10
25.051003
20
59.565246
30
0.0
0
VERTEX
100
AcDbVertex
100
AcDb2dVertex
8
Layer01
10
24.518004
20
59.169118
30
0.0
0
VERTEX
100
AcDbVertex
100
AcDb2dVertex
8
Layer01
10
23.985005
20
58.768016
30
0.0
0
VERTEX
100
AcDbVertex
100
AcDb2dVertex
8
Layer01
10
23.452006
20
58.361778
30
0.0
0
VERTEX
100
AcDbVertex
100
AcDb2dVertex
8
Layer01
10
22.919007
20
57.950228
30
0.0
0
VERTEX
100
AcDbVertex
100
AcDb2dVertex
8
Layer01
10
22.386008
20
57.533176
30
0.0
0
VERTEX
100
AcDbVertex
100
AcDb2dVertex
8
Layer01
10
21.853009
20
57.110416
30
0.0
0
VERTEX
100
AcDbVertex
100
AcDb2dVertex
8
Layer01
10
21.320009
20
56.681733
30
0.0
0
VERTEX
100
AcDbVertex
100
AcDb2dVertex
8
Layer01
10
21.053499
20
56.464992
30
0.0
0
VERTEX
100
AcDbVertex
100
AcDb2dVertex
8
Layer01
10
20.786998
20
56.24671
30
0.0
0
VERTEX
100
AcDbVertex
100
AcDb2dVertex
8
Layer01
10
20.520498
20
56.026851
30
0.0
0
VERTEX
100
AcDbVertex
100
AcDb2dVertex
8
Layer01
10
20.253997
20
55.805383
30
0.0
0
VERTEX
100
AcDbVertex
100
AcDb2dVertex
8
Layer01
10
19.987497
20
55.582278
30
0.0
0
VERTEX
100
AcDbVertex
100
AcDb2dVertex
8
Layer01
10
19.720996
20
55.357502
30
0.0
0
VERTEX
100
AcDbVertex
100
AcDb2dVertex
8
Layer01
10
19.454496
20
55.131021
30
0.0
0
VERTEX
100
AcDbVertex
100
AcDb2dVertex
8
Layer01
10
19.187995
20
54.902801
30
0.0
0
VERTEX
100
AcDbVertex
100
AcDb2dVertex
8
Layer01
10
18.921495
20
54.672802
30
0.0
0
VERTEX
100
AcDbVertex
100
AcDb2dVertex
8
Layer01
10
18.3885
20
54.206734
30
0.0
0
VERTEX
100
AcDbVertex
100
AcDb2dVertex
8
Layer01
10
18.121999
20
53.970637
30
0.0
0
VERTEX
100
AcDbVertex
100
AcDb2dVertex
8
Layer01
10
17.855498
20
53.732694
30
0.0
0
VERTEX
100
AcDbVertex
100
AcDb2dVertex
8
Layer01
10
17.588998
20
53.492891
30
0.0
0
VERTEX
100
AcDbVertex
100
AcDb2dVertex
8
Layer01
10
17.322497
20
53.251207
30
0.0
0
VERTEX
100
AcDbVertex
100
AcDb2dVertex
8
Layer01
10
17.055997
20
53.00761
30
0.0
0
VERTEX
100
AcDbVertex
100
AcDb2dVertex
8
Layer01
10
16.789496
20
52.762057
30
0.0
0
VERTEX
100
AcDbVertex
100
AcDb2dVertex
8
Layer01
10
16.522997
20
52.514497
30
0.0
0
VERTEX
100
AcDbVertex
100
AcDb2dVertex
8
Layer01
10
16.256497
20
52.264862
30
0.0
0
VERTEX
100
AcDbVertex
100
AcDb2dVertex
8
Layer01
10
15.7235
20
51.760731
30
0.0
0
VERTEX
100
AcDbVertex
100
AcDb2dVertex
8
Layer01
10
15.457001
20
51.505895
30
0.0
0
VERTEX
100
AcDbVertex
100
AcDb2dVertex
8
Layer01
10
15.190501
20
51.248307
30
0.0
0
VERTEX
100
AcDbVertex
100
AcDb2dVertex
8
Layer01
10
14.924001
20
50.987703
30
0.0
0
VERTEX
100
AcDbVertex
100
AcDb2dVertex
8
Layer01
10
14.657502
20
50.723815
30
0.0
0
VERTEX
100
AcDbVertex
100
AcDb2dVertex
8
Layer01
10
14.391002
20
50.45637
30
0.0
0
VERTEX
100
AcDbVertex
100
AcDb2dVertex
8
Layer01
10
14.124503
20
50.1851
30
0.0
0
VERTEX
100
AcDbVertex
100
AcDb2dVertex
8
Layer01
10
13.858003
20
49.909745
30
0.0
0
VERTEX
100
AcDbVertex
100
AcDb2dVertex
8
Layer01
10
13.591504
20
49.630051
30
0.0
0
VERTEX
100
AcDbVertex
100
AcDb2dVertex
8
Layer01
10
13.325004
20
49.345784
30
0.0
0
VERTEX
100
AcDbVertex
100
AcDb2dVertex
8
Layer01
10
13.058501
20
49.054215
30
0.0
0
VERTEX
100
AcDbVertex
100
AcDb2dVertex
8
Layer01
10
12.792001
20
48.75785
30
0.0
0
VERTEX
100
AcDbVertex
100
AcDb2dVertex
8
Layer01
10
12.525502
20
48.456693
30
0.0
0
VERTEX
100
AcDbVertex
100
AcDb2dVertex
8
Layer01
10
12.259002
20
48.150771
30
0.0
0
VERTEX
100
AcDbVertex
100
AcDb2dVertex
8
Layer01
10
11.992502
20
47.84012
30
0.0
0
VERTEX
100
AcDbVertex
100
AcDb2dVertex
8
Layer01
10
11.726003
20
47.524783
30
0.0
0
VERTEX
100
AcDbVertex
100
AcDb2dVertex
8
Layer01
10
11.459503
20
47.204807
30
0.0
0
VERTEX
100
AcDbVertex
100
AcDb2dVertex
8
Layer01
10
11.193004
20
46.880241
30
0.0
0
VERTEX
100
AcDbVertex
100
AcDb2dVertex
8
Layer01
10
10.926504
20
46.551127
30
0.0
0
VERTEX
100
AcDbVertex
100
AcDb2dVertex
8
Layer01
10
10.660005
20
46.217502
30
0.0
0
VERTEX
100
AcDbVertex
100
AcDb2dVertex
8
Layer01
10
10.3935
20
45.880642
30
0.0
0
VERTEX
100
AcDbVertex
100
AcDb2dVertex
8
Layer01
10
10.127001
20
45.539219
30
0.0
0
VERTEX
100
AcDbVertex
100
AcDb2dVertex
8
Layer01
10
9.860501
20
45.193128
30
0.0
0
VERTEX
100
AcDbVertex
100
AcDb2dVertex
8
Layer01
10
9.594002
20
44.842256
30
0.0
0
VERTEX
100
AcDbVertex
100
AcDb2dVertex
8
Layer01
10
9.327502
20
44.486475
30
0.0
0
VERTEX
100
AcDbVertex
100
AcDb2dVertex
8
Layer01
10
9.061002
20
44.125645
30
0.0
0
VERTEX
100
AcDbVertex
100
AcDb2dVertex
8
Layer01
10
8.794503
20
43.759608
30
0.0
0
VERTEX
100
AcDbVertex
100
AcDb2dVertex
8
Layer01
10
8.528003
20
43.388195
30
0.0
0
VERTEX
100
AcDbVertex
100
AcDb2dVertex
8
Layer01
10
8.261503
20
43.011222
30
0.0
0
VERTEX
100
AcDbVertex
100
AcDb2dVertex
8
Layer01
10
7.995003
20
42.628492
30
0.0
0
VERTEX
100
AcDbVertex
100
AcDb2dVertex
8
Layer01
10
7.995
20
42.628487
30
0.0
0
VERTEX
100
AcDbVertex
100
AcDb2dVertex
8
Layer01
10
7.70799
20
42.208791
30
0.0
0
VERTEX
100
AcDbVertex
100
AcDb2dVertex
8
Layer01
10
7.425773
20
41.789095
30
0.0
0
VERTEX
100
AcDbVertex
100
AcDb2dVertex
8
Layer01
10
7.148251
20
41.369399
30
0.0
0
VERTEX
100
AcDbVertex
100
AcDb2dVertex
8
Layer01
10
6.875332
20
40.949703
30
0.0
0
VERTEX
100
AcDbVertex
100
AcDb2dVertex
8
Layer01
10
6.606929
20
40.530007
30
0.0
0
VERTEX
100
AcDbVertex
100
AcDb2dVertex
8
Layer01
10
6.342958
20
40.110311
30
0.0
0
VERTEX
100
AcDbVertex
100
AcDb2dVertex
8
Layer01
10
6.083343
20
39.690615
30
0.0
0
VERTEX
100
AcDbVertex
100
AcDb2dVertex
8
Layer01
10
5.828017
20
39.270919
30
0.0
0
VERTEX
100
AcDbVertex
100
AcDb2dVertex
8
Layer01
10
5.576918
20
38.851223
30
0.0
0
VERTEX
100
AcDbVertex
100
AcDb2dVertex
8
Layer01
10
5.33
20
38.431539
30
0.0
0
VERTEX
100
AcDbVertex
100
AcDb2dVertex
8
Layer01
10
5.035449
20
37.922829
30
0.0
0
VERTEX
100
AcDbVertex
100
AcDb2dVertex
8
Layer01
10
4.746903
20
37.41412
30
0.0
0
VERTEX
100
AcDbVertex
100
AcDb2dVertex
8
Layer01
10
4.464401
20
36.90541
30
0.0
0
VERTEX
100
AcDbVertex
100
AcDb2dVertex
8
Layer01
10
4.18801
20
36.396701
30
0.0
0
VERTEX
100
AcDbVertex
100
AcDb2dVertex
8
Layer01
10
3.917823
20
35.887991
30
0.0
0
VERTEX
100
AcDbVertex
100
AcDb2dVertex
8
Layer01
10
3.653959
20
35.379282
30
0.0
0
VERTEX
100
AcDbVertex
100
AcDb2dVertex
8
Layer01
10
3.396564
20
34.870572
30
0.0
0
VERTEX
100
AcDbVertex
100
AcDb2dVertex
8
Layer01
10
3.145808
20
34.361863
30
0.0
0
VERTEX
100
AcDbVertex
100
AcDb2dVertex
8
Layer01
10
2.901883
20
33.853154
30
0.0
0
VERTEX
100
AcDbVertex
100
AcDb2dVertex
8
Layer01
10
2.665008
20
33.344444
30
0.0
0
VERTEX
100
AcDbVertex
100
AcDb2dVertex
8
Layer01
10
2.665001
20
33.344428
30
0.0
0
VERTEX
100
AcDbVertex
100
AcDb2dVertex
8
Layer01
10
2.280898
20
32.455986
30
0.0
0
VERTEX
100
AcDbVertex
100
AcDb2dVertex
8
Layer01
10
1.921032
20
31.567545
30
0.0
0
VERTEX
100
AcDbVertex
100
AcDb2dVertex
8
Layer01
10
1.585347
20
30.679103
30
0.0
0
VERTEX
100
AcDbVertex
100
AcDb2dVertex
8
Layer01
10
1.274046
20
29.790661
30
0.0
0
VERTEX
100
AcDbVertex
100
AcDb2dVertex
8
Layer01
10
0.987739
20
28.90222
30
0.0
0
VERTEX
100
AcDbVertex
100
AcDb2dVertex
8
Layer01
10
0.727596
20
28.013778
30
0.0
0
VERTEX
100
AcDbVertex
100
AcDb2dVertex
8
Layer01
10
0.495495
20
27.125336
30
0.0
0
VERTEX
100
AcDbVertex
100
AcDb2dVertex
8
Layer01
10
0.294171
20
26.236895
30
0.0
0
VERTEX
100
AcDbVertex
100
AcDb2dVertex
8
Layer01
10
0.127371
20
25.348453
30
0.0
0
VERTEX
100
AcDbVertex
100
AcDb2dVertex
8
Layer01
10
0.0
20
24.460011
30
0.0
0
VERTEX
100
AcDbVertex
100
AcDb2dVertex
8
Layer01
10
0.0
20
24.460009
30
0.0
0
VERTEX
100
AcDbVertex
100
AcDb2dVertex
8
Layer01
10
-0.041928
20
24.125024
30
0.0
0
VERTEX
100
AcDbVertex
100
AcDb2dVertex
8
Layer01
10
-0.075965
20
23.790039
30
0.0
0
VERTEX
100
AcDbVertex
100
AcDb2dVertex
8
Layer01
10
-0.101591
20
23.455054
30
0.0
0
VERTEX
100
AcDbVertex
100
AcDb2dVertex
8
Layer01
10
-0.118275
20
23.120069
30
0.0
0
VERTEX
100
AcDbVertex
100
AcDb2dVertex
8
Layer01
10
-0.12548
20
22.785083
30
0.0
0
VERTEX
100
AcDbVertex
100
AcDb2dVertex
8
Layer01
10
-0.122659
20
22.450098
30
0.0
0
VERTEX
100
AcDbVertex
100
AcDb2dVertex
8
Layer01
10
-0.10926
20
22.115113
30
0.0
0
VERTEX
100
AcDbVertex
100
AcDb2dVertex
8
Layer01
10
-0.084724
20
21.780128
30
0.0
0
VERTEX
100
AcDbVertex
100
AcDb2dVertex
8
Layer01
10
-0.048492
20
21.445143
30
0.0
0
VERTEX
100
AcDbVertex
100
AcDb2dVertex
8
Layer01
10
0.0
20
21.110158
30
0.0
0
VERTEX
100
AcDbVertex
100
AcDb2dVertex
8
Layer01
10
0.0
20
21.110158
30
0.0
0
VERTEX
100
AcDbVertex
100
AcDb2dVertex
8
Layer01
10
0.114415
20
20.597624
30
0.0
0
VERTEX
100
AcDbVertex
100
AcDb2dVertex
8
Layer01
10
0.259943
20
20.08509
30
0.0
0
VERTEX
100
AcDbVertex
100
AcDb2dVertex
8
Layer01
10
0.437045
20
19.572556
30
0.0
0
VERTEX
100
AcDbVertex
100
AcDb2dVertex
8
Layer01
10
0.646412
20
19.060023
30
0.0
0
VERTEX
100
AcDbVertex
100
AcDb2dVertex
8
Layer01
10
0.889033
20
18.547489
30
0.0
0
VERTEX
100
AcDbVertex
100
AcDb2dVertex
8
Layer01
10
1.166262
20
18.034955
30
0.0
0
VERTEX
100
AcDbVertex
100
AcDb2dVertex
8
Layer01
10
1.479888
20
17.522421
30
0.0
0
VERTEX
100
AcDbVertex
100
AcDb2dVertex
8
Layer01
10
1.832205
20
17.009888
30
0.0
0
VERTEX
100
AcDbVertex
100
AcDb2dVertex
8
Layer01
10
2.226075
20
16.497355
30
0.0
0
VERTEX
100
AcDbVertex
100
AcDb2dVertex
8
Layer01
10
2.665
20
15.98483
30
0.0
0
VERTEX
100
AcDbVertex
100
AcDb2dVertex
8
Layer01
10
2.865151
20
15.754185
30
0.0
0
VERTEX
100
AcDbVertex
100
AcDb2dVertex
8
Layer01
10
3.078569
20
15.52354
30
0.0
0
VERTEX
100
AcDbVertex
100
AcDb2dVertex
8
Layer01
10
3.305959
20
15.292895
30
0.0
0
VERTEX
100
AcDbVertex
100
AcDb2dVertex
8
Layer01
10
3.547954
20
15.06225
30
0.0
0
VERTEX
100
AcDbVertex
100
AcDb2dVertex
8
Layer01
10
3.805103
20
14.831605
30
0.0
0
VERTEX
100
AcDbVertex
100
AcDb2dVertex
8
Layer01
10
4.077858
20
14.600961
30
0.0
0
VERTEX
100
AcDbVertex
100
AcDb2dVertex
8
Layer01
10
4.366565
20
14.370316
30
0.0
0
VERTEX
100
AcDbVertex
100
AcDb2dVertex
8
Layer01
10
4.67145
20
14.139671
30
0.0
0
VERTEX
100
AcDbVertex
100
AcDb2dVertex
8
Layer01
10
4.992609
20
13.909026
30
0.0
0
VERTEX
100
AcDbVertex
100
AcDb2dVertex
8
Layer01
10
5.329997
20
13.678381
30
0.0
0
VERTEX
100
AcDbVertex
100
AcDb2dVertex
8
Layer01
10
5.33
20
13.678379
30
0.0
0
VERTEX
100
AcDbVertex
100
AcDb2dVertex
8
Layer01
10
5.567289
20
13.522823
30
0.0
0
VERTEX
100
AcDbVertex
100
AcDb2dVertex
8
Layer01
10
5.81165
20
13.367266
30
0.0
0
VERTEX
100
AcDbVertex
100
AcDb2dVertex
8
Layer01
10
6.062921
20
13.21171
30
0.0
0
VERTEX
100
AcDbVertex
100
AcDb2dVertex
8
Layer01
10
6.320912
20
13.056154
30
0.0
0
VERTEX
100
AcDbVertex
100
AcDb2dVertex
8
Layer01
10
6.585398
20
12.900597
30
0.0
0
VERTEX
100
AcDbVertex
100
AcDb2dVertex
8
Layer01
10
6.85612
20
12.745041
30
0.0
0
VERTEX
100
AcDbVertex
100
AcDb2dVertex
8
Layer01
10
7.132788
20
12.589485
30
0.0
0
VERTEX
100
AcDbVertex
100
AcDb2dVertex
8
Layer01
10
7.415073
20
12.433929
30
0.0
0
VERTEX
100
AcDbVertex
100
AcDb2dVertex
8
Layer01
10
7.702612
20
12.278372
30
0.0
0
VERTEX
100
AcDbVertex
100
AcDb2dVertex
8
Layer01
10
7.995001
20
12.122818
30
0.0
0
VERTEX
100
AcDbVertex
100
AcDb2dVertex
8
Layer01
10
8.254532
20
11.987777
30
0.0
0
VERTEX
100
AcDbVertex
100
AcDb2dVertex
8
Layer01
10
8.516833
20
11.852736
30
0.0
0
VERTEX
100
AcDbVertex
100
AcDb2dVertex
8
Layer01
10
8.781452
20
11.717694
30
0.0
0
VERTEX
100
AcDbVertex
100
AcDb2dVertex
8
Layer01
10
9.047931
20
11.582653
30
0.0
0
VERTEX
100
AcDbVertex
100
AcDb2dVertex
8
Layer01
10
9.315805
20
11.447612
30
0.0
0
VERTEX
100
AcDbVertex
100
AcDb2dVertex
8
Layer01
10
9.58461
20
11.31257
30
0.0
0
VERTEX
100
AcDbVertex
100
AcDb2dVertex
8
Layer01
10
9.853884
20
11.177529
30
0.0
0
VERTEX
100
AcDbVertex
100
AcDb2dVertex
8
Layer01
10
10.123171
20
11.042488
30
0.0
0
VERTEX
100
AcDbVertex
100
AcDb2dVertex
8
Layer01
10
10.392024
20
10.907447
30
0.0
0
VERTEX
100
AcDbVertex
100
AcDb2dVertex
8
Layer01
10
10.926499
20
10.640486
30
0.0
0
VERTEX
100
AcDbVertex
100
AcDb2dVertex
8
Layer01
10
11.192999
20
10.5074
30
0.0
0
VERTEX
100
AcDbVertex
100
AcDb2dVertex
8
Layer01
10
11.459498
20
10.372729
30
0.0
0
VERTEX
100
AcDbVertex
100
AcDb2dVertex
8
Layer01
10
11.725998
20
10.236075
30
0.0
0
VERTEX
100
AcDbVertex
100
AcDb2dVertex
8
Layer01
10
11.992497
20
10.097078
30
0.0
0
VERTEX
100
AcDbVertex
100
AcDb2dVertex
8
Layer01
10
12.258997
20
9.955425
30
0.0
0
VERTEX
100
AcDbVertex
100
AcDb2dVertex
8
Layer01
10
12.525497
20
9.810856
30
0.0
0
VERTEX
100
AcDbVertex
100
AcDb2dVertex
8
Layer01
10
12.791996
20
9.663179
30
0.0
0
VERTEX
100
AcDbVertex
100
AcDb2dVertex
8
Layer01
10
13.058496
20
9.512271
30
0.0
0
VERTEX
100
AcDbVertex
100
AcDb2dVertex
8
Layer01
10
13.324995
20
9.358097
30
0.0
0
VERTEX
100
AcDbVertex
100
AcDb2dVertex
8
Layer01
10
13.5915
20
9.190636
30
0.0
0
VERTEX
100
AcDbVertex
100
AcDb2dVertex
8
Layer01
10
13.857999
20
9.020878
30
0.0
0
VERTEX
100
AcDbVertex
100
AcDb2dVertex
8
Layer01
10
14.124499
20
8.849813
30
0.0
0
VERTEX
100
AcDbVertex
100
AcDb2dVertex
8
Layer01
10
14.390998
20
8.678491
30
0.0
0
VERTEX
100
AcDbVertex
100
AcDb2dVertex
8
Layer01
10
14.657498
20
8.508001
30
0.0
0
VERTEX
100
AcDbVertex
100
AcDb2dVertex
8
Layer01
10
14.923997
20
8.339444
30
0.0
0
VERTEX
100
AcDbVertex
100
AcDb2dVertex
8
Layer01
10
15.190497
20
8.173918
30
0.0
0
VERTEX
100
AcDbVertex
100
AcDb2dVertex
8
Layer01
10
15.456997
20
8.012493
30
0.0
0
VERTEX
100
AcDbVertex
100
AcDb2dVertex
8
Layer01
10
15.723496
20
7.856189
30
0.0
0
VERTEX
100
AcDbVertex
100
AcDb2dVertex
8
Layer01
10
15.989996
20
7.705956
30
0.0
0
VERTEX
100
AcDbVertex
100
AcDb2dVertex
8
Layer01
10
16.256499
20
7.57316
30
0.0
0
VERTEX
100
AcDbVertex
100
AcDb2dVertex
8
Layer01
10
16.522999
20
7.447252
30
0.0
0
VERTEX
100
AcDbVertex
100
AcDb2dVertex
8
Layer01
10
16.789498
20
7.328081
30
0.0
0
VERTEX
100
AcDbVertex
100
AcDb2dVertex
8
Layer01
10
17.055999
20
7.215408
30
0.0
0
VERTEX
100
AcDbVertex
100
AcDb2dVertex
8
Layer01
10
17.322499
20
7.108912
30
0.0
0
VERTEX
100
AcDbVertex
100
AcDb2dVertex
8
Layer01
10
17.589
20
7.0082
30
0.0
0
VERTEX
100
AcDbVertex
100
AcDb2dVertex
8
Layer01
10
17.8555
20
6.912819
30
0.0
0
VERTEX
100
AcDbVertex
100
AcDb2dVertex
8
Layer01
10
18.122001
20
6.822266
30
0.0
0
VERTEX
100
AcDbVertex
100
AcDb2dVertex
8
Layer01
10
18.388502
20
6.735996
30
0.0
0
VERTEX
100
AcDbVertex
100
AcDb2dVertex
8
Layer01
10
18.921501
20
6.568567
30
0.0
0
VERTEX
100
AcDbVertex
100
AcDb2dVertex
8
Layer01
10
19.188001
20
6.486425
30
0.0
0
VERTEX
100
AcDbVertex
100
AcDb2dVertex
8
Layer01
10
19.454502
20
6.406811
30
0.0
0
VERTEX
100
AcDbVertex
100
AcDb2dVertex
8
Layer01
10
19.721002
20
6.329539
30
0.0
0
VERTEX
100
AcDbVertex
100
AcDb2dVertex
8
Layer01
10
19.987503
20
6.254434
30
0.0
0
VERTEX
100
AcDbVertex
100
AcDb2dVertex
8
Layer01
10
20.254003
20
6.181332
30
0.0
0
VERTEX
100
AcDbVertex
100
AcDb2dVertex
8
Layer01
10
20.520504
20
6.110084
30
0.0
0
VERTEX
100
AcDbVertex
100
AcDb2dVertex
8
Layer01
10
20.787004
20
6.04055
30
0.0
0
VERTEX
100
AcDbVertex
100
AcDb2dVertex
8
Layer01
10
21.053505
20
5.972601
30
0.0
0
VERTEX
100
AcDbVertex
100
AcDb2dVertex
8
Layer01
10
21.852999
20
5.776044
30
0.0
0
VERTEX
100
AcDbVertex
100
AcDb2dVertex
8
Layer01
10
22.385998
20
5.650523
30
0.0
0
VERTEX
100
AcDbVertex
100
AcDb2dVertex
8
Layer01
10
22.918997
20
5.529123
30
0.0
0
VERTEX
100
AcDbVertex
100
AcDb2dVertex
8
Layer01
10
23.451996
20
5.411565
30
0.0
0
VERTEX
100
AcDbVertex
100
AcDb2dVertex
8
Layer01
10
23.984995
20
5.2977
30
0.0
0
VERTEX
100
AcDbVertex
100
AcDb2dVertex
8
Layer01
10
24.517994
20
5.187488
30
0.0
0
VERTEX
100
AcDbVertex
100
AcDb2dVertex
8
Layer01
10
25.050993
20
5.080976
30
0.0
0
VERTEX
100
AcDbVertex
100
AcDb2dVertex
8
Layer01
10
25.583992
20
4.978277
30
0.0
0
VERTEX
100
AcDbVertex
100
AcDb2dVertex
8
Layer01
10
26.116991
20
4.879545
30
0.0
0
VERTEX
100
AcDbVertex
100
AcDb2dVertex
8
Layer01
10
26.64999
20
4.784956
30
0.0
0
VERTEX
100
AcDbVertex
100
AcDb2dVertex
8
Layer01
10
27.182999
20
4.703253
30
0.0
0
VERTEX
100
AcDbVertex
100
AcDb2dVertex
8
Layer01
10
27.715999
20
4.625611
30
0.0
0
VERTEX
100
AcDbVertex
100
AcDb2dVertex
8
Layer01
10
28.248998
20
4.551445
30
0.0
0
VERTEX
100
AcDbVertex
100
AcDb2dVertex
8
Layer01
10
28.781997
20
4.480137
30
0.0
0
VERTEX
100
AcDbVertex
100
AcDb2dVertex
8
Layer01
10
29.314996
20
4.411049
30
0.0
0
VERTEX
100
AcDbVertex
100
AcDb2dVertex
8
Layer01
10
29.847995
20
4.343533
30
0.0
0
VERTEX
100
AcDbVertex
100
AcDb2dVertex
8
Layer01
10
30.380994
20
4.276948
30
0.0
0
VERTEX
100
AcDbVertex
100
AcDb2dVertex
8
Layer01
10
30.913993
20
4.210665
30
0.0
0
VERTEX
100
AcDbVertex
100
AcDb2dVertex
8
Layer01
10
31.446992
20
4.144086
30
0.0
0
VERTEX
100
AcDbVertex
100
AcDb2dVertex
8
Layer01
10
31.979991
20
4.076652
30
0.0
0
VERTEX
100
AcDbVertex
100
AcDb2dVertex
8
Layer01
10
32.512998
20
4.001404
30
0.0
0
VERTEX
100
AcDbVertex
100
AcDb2dVertex
8
Layer01
10
33.045997
20
3.924839
30
0.0
0
VERTEX
100
AcDbVertex
100
AcDb2dVertex
8
Layer01
10
33.578997
20
3.847057
30
0.0
0
VERTEX
100
AcDbVertex
100
AcDb2dVertex
8
Layer01
10
34.111998
20
3.768208
30
0.0
0
VERTEX
100
AcDbVertex
100
AcDb2dVertex
8
Layer01
10
34.644999
20
3.688484
30
0.0
0
VERTEX
100
AcDbVertex
100
AcDb2dVertex
8
Layer01
10
35.178
20
3.608113
30
0.0
0
VERTEX
100
AcDbVertex
100
AcDb2dVertex
8
Layer01
10
35.711001
20
3.527351
30
0.0
0
VERTEX
100
AcDbVertex
100
AcDb2dVertex
8
Layer01
10
36.244002
20
3.446471
30
0.0
0
VERTEX
100
AcDbVertex
100
AcDb2dVertex
8
Layer01
10
36.777003
20
3.365763
30
0.0
0
VERTEX
100
AcDbVertex
100
AcDb2dVertex
8
Layer01
10
37.843001
20
3.208287
30
0.0
0
VERTEX
100
AcDbVertex
100
AcDb2dVertex
8
Layer01
10
38.376002
20
3.131922
30
0.0
0
VERTEX
100
AcDbVertex
100
AcDb2dVertex
8
Layer01
10
38.909003
20
3.056524
30
0.0
0
VERTEX
100
AcDbVertex
100
AcDb2dVertex
8
Layer01
10
39.442004
20
2.982183
30
0.0
0
VERTEX
100
AcDbVertex
100
AcDb2dVertex
8
Layer01
10
39.975006
20
2.908979
30
0.0
0
VERTEX
100
AcDbVertex
100
AcDb2dVertex
8
Layer01
10
40.508007
20
2.836979
30
0.0
0
VERTEX
100
AcDbVertex
100
AcDb2dVertex
8
Layer01
10
41.041008
20
2.766238
30
0.0
0
VERTEX
100
AcDbVertex
100
AcDb2dVertex
8
Layer01
10
41.574009
20
2.696797
30
0.0
0
VERTEX
100
AcDbVertex
100
AcDb2dVertex
8
Layer01
10
42.10701
20
2.628685
30
0.0
0
VERTEX
100
AcDbVertex
100
AcDb2dVertex
8
Layer01
10
43.173
20
2.497959
30
0.0
0
VERTEX
100
AcDbVertex
100
AcDb2dVertex
8
Layer01
10
43.706001
20
2.435216
30
0.0
0
VERTEX
100
AcDbVertex
100
AcDb2dVertex
8
Layer01
10
44.239002
20
2.373552
30
0.0
0
VERTEX
100
AcDbVertex
100
AcDb2dVertex
8
Layer01
10
44.772003
20
2.312822
30
0.0
0
VERTEX
100
AcDbVertex
100
AcDb2dVertex
8
Layer01
10
45.305004
20
2.252879
30
0.0
0
VERTEX
100
AcDbVertex
100
AcDb2dVertex
8
Layer01
10
45.838006
20
2.193573
30
0.0
0
VERTEX
100
AcDbVertex
100
AcDb2dVertex
8
Layer01
10
46.371007
20
2.134762
30
0.0
0
VERTEX
100
AcDbVertex
100
AcDb2dVertex
8
Layer01
10
46.904008
20
2.076309
30
0.0
0
VERTEX
100
AcDbVertex
100
AcDb2dVertex
8
Layer01
10
47.437009
20
2.018091
30
0.0
0
VERTEX
100
AcDbVertex
100
AcDb2dVertex
8
Layer01
10
48.503003
20
1.899233
30
0.0
0
VERTEX
100
AcDbVertex
100
AcDb2dVertex
8
Layer01
10
49.036004
20
1.838645
30
0.0
0
VERTEX
100
AcDbVertex
100
AcDb2dVertex
8
Layer01
10
49.569005
20
1.778396
30
0.0
0
VERTEX
100
AcDbVertex
100
AcDb2dVertex
8
Layer01
10
50.102006
20
1.71866
30
0.0
0
VERTEX
100
AcDbVertex
100
AcDb2dVertex
8
Layer01
10
50.635007
20
1.659622
30
0.0
0
VERTEX
100
AcDbVertex
100
AcDb2dVertex
8
Layer01
10
51.168008
20
1.601475
30
0.0
0
VERTEX
100
AcDbVertex
100
AcDb2dVertex
8
Layer01
10
51.701009
20
1.544411
30
0.0
0
VERTEX
100
AcDbVertex
100
AcDb2dVertex
8
Layer01
10
52.234011
20
1.48862
30
0.0
0
VERTEX
100
AcDbVertex
100
AcDb2dVertex
8
Layer01
10
52.767012
20
1.434289
30
0.0
0
VERTEX
100
AcDbVertex
100
AcDb2dVertex
8
Layer01
10
53.833002
20
1.332928
30
0.0
0
VERTEX
100
AcDbVertex
100
AcDb2dVertex
8
Layer01
10
54.366003
20
1.286025
30
0.0
0
VERTEX
100
AcDbVertex
100
AcDb2dVertex
8
Layer01
10
54.899004
20
1.24083
30
0.0
0
VERTEX
100
AcDbVertex
100
AcDb2dVertex
8
Layer01
10
55.432005
20
1.197279
30
0.0
0
VERTEX
100
AcDbVertex
100
AcDb2dVertex
8
Layer01
10
55.965006
20
1.155297
30
0.0
0
VERTEX
100
AcDbVertex
100
AcDb2dVertex
8
Layer01
10
56.498007
20
1.114797
30
0.0
0
VERTEX
100
AcDbVertex
100
AcDb2dVertex
8
Layer01
10
57.031008
20
1.075685
30
0.0
0
VERTEX
100
AcDbVertex
100
AcDb2dVertex
8
Layer01
10
57.564009
20
1.037864
30
0.0
0
VERTEX
100
AcDbVertex
100
AcDb2dVertex
8
Layer01
10
58.097011
20
1.001232
30
0.0
0
VERTEX
100
AcDbVertex
100
AcDb2dVertex
8
Layer01
10
59.163001
20
0.930138
30
0.0
0
VERTEX
100
AcDbVertex
100
AcDb2dVertex
8
Layer01
10
59.696002
20
0.895558
30
0.0
0
VERTEX
100
AcDbVertex
100
AcDb2dVertex
8
Layer01
10
60.229003
20
0.861935
30
0.0
0
VERTEX
100
AcDbVertex
100
AcDb2dVertex
8
Layer01
10
60.762004
20
0.82926
30
0.0
0
VERTEX
100
AcDbVertex
100
AcDb2dVertex
8
Layer01
10
61.295005
20
0.797524
30
0.0
0
VERTEX
100
AcDbVertex
100
AcDb2dVertex
8
Layer01
10
61.828006
20
0.766724
30
0.0
0
VERTEX
100
AcDbVertex
100
AcDb2dVertex
8
Layer01
10
62.361007
20
0.736859
30
0.0
0
VERTEX
100
AcDbVertex
100
AcDb2dVertex
8
Layer01
10
62.894008
20
0.707928
30
0.0
0
VERTEX
100
AcDbVertex
100
AcDb2dVertex
8
Layer01
10
63.427009
20
0.679931
30
0.0
0
VERTEX
100
AcDbVertex
100
AcDb2dVertex
8
Layer01
10
64.493
20
0.626935
30
0.0
0
VERTEX
100
AcDbVertex
100
AcDb2dVertex
8
Layer01
10
65.026001
20
0.601923
30
0.0
0
VERTEX
100
AcDbVertex
100
AcDb2dVertex
8
Layer01
10
65.559002
20
0.577823
30
0.0
0
VERTEX
100
AcDbVertex
100
AcDb2dVertex
8
Layer01
10
66.092003
20
0.554621
30
0.0
0
VERTEX
100
AcDbVertex
100
AcDb2dVertex
8
Layer01
10
66.625
20
0.532303
30
0.0
0
VERTEX
100
AcDbVertex
100
AcDb2dVertex
8
Layer01
10
67.158001
20
0.510853
30
0.0
0
VERTEX
100
AcDbVertex
100
AcDb2dVertex
8
Layer01
10
67.691002
20
0.490258
30
0.0
0
VERTEX
100
AcDbVertex
100
AcDb2dVertex
8
Layer01
10
68.224003
20
0.4705
30
0.0
0
VERTEX
100
AcDbVertex
100
AcDb2dVertex
8
Layer01
10
68.757004
20
0.451565
30
0.0
0
VERTEX
100
AcDbVertex
100
AcDb2dVertex
8
Layer01
10
69.822999
20
0.415957
30
0.0
0
VERTEX
100
AcDbVertex
100
AcDb2dVertex
8
Layer01
10
70.356
20
0.39926
30
0.0
0
VERTEX
100
AcDbVertex
100
AcDb2dVertex
8
Layer01
10
70.889001
20
0.383337
30
0.0
0
VERTEX
100
AcDbVertex
100
AcDb2dVertex
8
Layer01
10
71.422002
20
0.36818
30
0.0
0
VERTEX
100
AcDbVertex
100
AcDb2dVertex
8
Layer01
10
71.955003
20
0.353778
30
0.0
0
VERTEX
100
AcDbVertex
100
AcDb2dVertex
8
Layer01
10
72.488004
20
0.340118
30
0.0
0
VERTEX
100
AcDbVertex
100
AcDb2dVertex
8
Layer01
10
73.021005
20
0.327186
30
0.0
0
VERTEX
100
AcDbVertex
100
AcDb2dVertex
8
Layer01
10
73.554006
20
0.314964
30
0.0
0
VERTEX
100
AcDbVertex
100
AcDb2dVertex
8
Layer01
10
74.087007
20
0.303431
30
0.0
0
VERTEX
100
AcDbVertex
100
AcDb2dVertex
8
Layer01
10
75.153001
20
0.282914
30
0.0
0
VERTEX
100
AcDbVertex
100
AcDb2dVertex
8
Layer01
10
75.686002
20
0.273824
30
0.0
0
VERTEX
100
AcDbVertex
100
AcDb2dVertex
8
Layer01
10
76.219004
20
0.265213
30
0.0
0
VERTEX
100
AcDbVertex
100
AcDb2dVertex
8
Layer01
10
76.752005
20
0.257001
30
0.0
0
VERTEX
100
AcDbVertex
100
AcDb2dVertex
8
Layer01
10
77.285006
20
0.249105
30
0.0
0
VERTEX
100
AcDbVertex
100
AcDb2dVertex
8
Layer01
10
77.818007
20
0.241445
30
0.0
0
VERTEX
100
AcDbVertex
100
AcDb2dVertex
8
Layer01
10
78.351008
20
0.233941
30
0.0
0
VERTEX
100
AcDbVertex
100
AcDb2dVertex
8
Layer01
10
78.884009
20
0.226521
30
0.0
0
VERTEX
100
AcDbVertex
100
AcDb2dVertex
8
Layer01
10
79.41701
20
0.219113
30
0.0
0
VERTEX
100
AcDbVertex
100
AcDb2dVertex
8
Layer01
10
80.483004
20
0.203224
30
0.0
0
VERTEX
100
AcDbVertex
100
AcDb2dVertex
8
Layer01
10
81.016005
20
0.194707
30
0.0
0
VERTEX
100
AcDbVertex
100
AcDb2dVertex
8
Layer01
10
81.549006
20
0.186131
30
0.0
0
VERTEX
100
AcDbVertex
100
AcDb2dVertex
8
Layer01
10
82.082007
20
0.177528
30
0.0
0
VERTEX
100
AcDbVertex
100
AcDb2dVertex
8
Layer01
10
82.615009
20
0.168938
30
0.0
0
VERTEX
100
AcDbVertex
100
AcDb2dVertex
8
Layer01
10
83.14801
20
0.160404
30
0.0
0
VERTEX
100
AcDbVertex
100
AcDb2dVertex
8
Layer01
10
83.681011
20
0.151971
30
0.0
0
VERTEX
100
AcDbVertex
100
AcDb2dVertex
8
Layer01
10
84.214012
20
0.143688
30
0.0
0
VERTEX
100
AcDbVertex
100
AcDb2dVertex
8
Layer01
10
84.747013
20
0.135602
30
0.0
0
VERTEX
100
AcDbVertex
100
AcDb2dVertex
8
Layer01
10
85.812999
20
0.120745
30
0.0
0
VERTEX
100
AcDbVertex
100
AcDb2dVertex
8
Layer01
10
86.346
20
0.114018
30
0.0
0
VERTEX
100
AcDbVertex
100
AcDb2dVertex
8
Layer01
10
86.879001
20
0.107578
30
0.0
0
VERTEX
100
AcDbVertex
100
AcDb2dVertex
8
Layer01
10
87.412002
20
0.10142
30
0.0
0
VERTEX
100
AcDbVertex
100
AcDb2dVertex
8
Layer01
10
87.945003
20
0.095535
30
0.0
0
VERTEX
100
AcDbVertex
100
AcDb2dVertex
8
Layer01
10
88.478005
20
0.089914
30
0.0
0
VERTEX
100
AcDbVertex
100
AcDb2dVertex
8
Layer01
10
89.011006
20
0.084545
30
0.0
0
VERTEX
100
AcDbVertex
100
AcDb2dVertex
8
Layer01
10
89.544007
20
0.079416
30
0.0
0
VERTEX
100
AcDbVertex
100
AcDb2dVertex
8
Layer01
10
90.077008
20
0.074514
30
0.0
0
VERTEX
100
AcDbVertex
100
AcDb2dVertex
8
Layer01
10
91.143002
20
0.065209
30
0.0
0
VERTEX
100
AcDbVertex
100
AcDb2dVertex
8
Layer01
10
91.676003
20
0.060787
30
0.0
0
VERTEX
100
AcDbVertex
100
AcDb2dVertex
8
Layer01
10
92.209004
20
0.056552
30
0.0
0
VERTEX
100
AcDbVertex
100
AcDb2dVertex
8
Layer01
10
92.742005
20
0.0525
30
0.0
0
VERTEX
100
AcDbVertex
100
AcDb2dVertex
8
Layer01
10
93.275006
20
0.048626
30
0.0
0
VERTEX
100
AcDbVertex
100
AcDb2dVertex
8
Layer01
10
93.808007
20
0.044925
30
0.0
0
VERTEX
100
AcDbVertex
100
AcDb2dVertex
8
Layer01
10
94.341009
20
0.041392
30
0.0
0
VERTEX
100
AcDbVertex
100
AcDb2dVertex
8
Layer01
10
94.87401
20
0.038025
30
0.0
0
VERTEX
100
AcDbVertex
100
AcDb2dVertex
8
Layer01
10
95.407011
20
0.034817
30
0.0
0
VERTEX
100
AcDbVertex
100
AcDb2dVertex
8
Layer01
10
96.473005
20
0.028926
30
0.0
0
VERTEX
100
AcDbVertex
100
AcDb2dVertex
8
Layer01
10
97.006006
20
0.02623
30
0.0
0
VERTEX
100
AcDbVertex
100
AcDb2dVertex
8
Layer01
10
97.539007
20
0.023672
30
0.0
0
VERTEX
100
AcDbVertex
100
AcDb2dVertex
8
Layer01
10
98.072008
20
0.021244
30
0.0
0
VERTEX
100
AcDbVertex
100
AcDb2dVertex
8
Layer01
10
98.605009
20
0.018939
30
0.0
0
VERTEX
100
AcDbVertex
100
AcDb2dVertex
8
Layer01
10
99.13801
20
0.016752
30
0.0
0
VERTEX
100
AcDbVertex
100
AcDb2dVertex
8
Layer01
10
99.671011
20
0.014679
30
0.0
0
VERTEX
100
AcDbVertex
100
AcDb2dVertex
8
Layer01
10
100.204012
20
0.012716
30
0.0
0
VERTEX
100
AcDbVertex
100
AcDb2dVertex
8
Layer01
10
100.737014
20
0.010862
30
0.0
0
VERTEX
100
AcDbVertex
100
AcDb2dVertex
8
Layer01
10
101.803
20
0.007254
30
0.0
0
VERTEX
100
AcDbVertex
100
AcDb2dVertex
8
Layer01
10
102.336001
20
0.005521
30
0.0
0
VERTEX
100
AcDbVertex
100
AcDb2dVertex
8
Layer01
10
102.869002
20
0.003939
30
0.0
0
VERTEX
100
AcDbVertex
100
AcDb2dVertex
8
Layer01
10
103.402003
20
0.002528
30
0.0
0
VERTEX
100
AcDbVertex
100
AcDb2dVertex
8
Layer01
10
103.935004
20
0.00131
30
0.0
0
VERTEX
100
AcDbVertex
100
AcDb2dVertex
8
Layer01
10
104.468005
20
0.00031
30
0.0
0
VERTEX
100
AcDbVertex
100
AcDb2dVertex
8
Layer01
10
105.001006
20
-0.000453
30
0.0
0
VERTEX
100
AcDbVertex
100
AcDb2dVertex
8
Layer01
10
105.534007
20
-0.000958
30
0.0
0
VERTEX
100
AcDbVertex
100
AcDb2dVertex
8
Layer01
10
106.067008
20
-0.001186
30
0.0
0
VERTEX
100
AcDbVertex
100
AcDb2dVertex
8
Layer01
10
107.133003
20
-0.000432
30
0.0
0
VERTEX
100
AcDbVertex
100
AcDb2dVertex
8
Layer01
10
107.666004
20
0.00055
30
0.0
0
VERTEX
100
AcDbVertex
100
AcDb2dVertex
8
Layer01
10
108.199005
20
0.001812
30
0.0
0
VERTEX
100
AcDbVertex
100
AcDb2dVertex
8
Layer01
10
108.732006
20
0.003337
30
0.0
0
VERTEX
100
AcDbVertex
100
AcDb2dVertex
8
Layer01
10
109.265007
20
0.005104
30
0.0
0
VERTEX
100
AcDbVertex
100
AcDb2dVertex
8
Layer01
10
109.798008
20
0.007094
30
0.0
0
VERTEX
100
AcDbVertex
100
AcDb2dVertex
8
Layer01
10
110.331009
20
0.009285
30
0.0
0
VERTEX
100
AcDbVertex
100
AcDb2dVertex
8
Layer01
10
110.86401
20
0.011655
30
0.0
0
VERTEX
100
AcDbVertex
100
AcDb2dVertex
8
Layer01
10
111.397011
20
0.014181
30
0.0
0
VERTEX
100
AcDbVertex
100
AcDb2dVertex
8
Layer01
10
112.462998
20
0.019428
30
0.0
0
VERTEX
100
AcDbVertex
100
AcDb2dVertex
8
Layer01
10
112.995999
20
0.022122
30
0.0
0
VERTEX
100
AcDbVertex
100
AcDb2dVertex
8
Layer01
10
113.529
20
0.024922
30
0.0
0
VERTEX
100
AcDbVertex
100
AcDb2dVertex
8
Layer01
10
114.062001
20
0.027824
30
0.0
0
VERTEX
100
AcDbVertex
100
AcDb2dVertex
8
Layer01
10
114.595002
20
0.030827
30
0.0
0
VERTEX
100
AcDbVertex
100
AcDb2dVertex
8
Layer01
10
115.128003
20
0.033929
30
0.0
0
VERTEX
100
AcDbVertex
100
AcDb2dVertex
8
Layer01
10
115.661004
20
0.03713
30
0.0
0
VERTEX
100
AcDbVertex
100
AcDb2dVertex
8
Layer01
10
116.194005
20
0.04043
30
0.0
0
VERTEX
100
AcDbVertex
100
AcDb2dVertex
8
Layer01
10
116.727006
20
0.04383
30
0.0
0
VERTEX
100
AcDbVertex
100
AcDb2dVertex
8
Layer01
10
117.793
20
0.050976
30
0.0
0
VERTEX
100
AcDbVertex
100
AcDb2dVertex
8
Layer01
10
118.326002
20
0.054722
30
0.0
0
VERTEX
100
AcDbVertex
100
AcDb2dVertex
8
Layer01
10
118.859003
20
0.058564
30
0.0
0
VERTEX
100
AcDbVertex
100
AcDb2dVertex
8
Layer01
10
119.392004
20
0.062501
30
0.0
0
VERTEX
100
AcDbVertex
100
AcDb2dVertex
8
Layer01
10
119.925005
20
0.066531
30
0.0
0
VERTEX
100
AcDbVertex
100
AcDb2dVertex
8
Layer01
10
120.458006
20
0.070652
30
0.0
0
VERTEX
100
AcDbVertex
100
AcDb2dVertex
8
Layer01
10
120.991007
20
0.074861
30
0.0
0
VERTEX
100
AcDbVertex
100
AcDb2dVertex
8
Layer01
10
121.524008
20
0.079156
30
0.0
0
VERTEX
100
AcDbVertex
100
AcDb2dVertex
8
Layer01
10
122.057009
20
0.083536
30
0.0
0
VERTEX
100
AcDbVertex
100
AcDb2dVertex
8
Layer01
10
123.123003
20
0.092539
30
0.0
0
VERTEX
100
AcDbVertex
100
AcDb2dVertex
8
Layer01
10
123.656004
20
0.097159
30
0.0
0
VERTEX
100
AcDbVertex
100
AcDb2dVertex
8
Layer01
10
124.189005
20
0.101856
30
0.0
0
VERTEX
100
AcDbVertex
100
AcDb2dVertex
8
Layer01
10
124.722007
20
0.106629
30
0.0
0
VERTEX
100
AcDbVertex
100
AcDb2dVertex
8
Layer01
10
125.255008
20
0.111476
30
0.0
0
VERTEX
100
AcDbVertex
100
AcDb2dVertex
8
Layer01
10
125.788009
20
0.116395
30
0.0
0
VERTEX
100
AcDbVertex
100
AcDb2dVertex
8
Layer01
10
126.32101
20
0.121385
30
0.0
0
VERTEX
100
AcDbVertex
100
AcDb2dVertex
8
Layer01
10
126.854011
20
0.126445
30
0.0
0
VERTEX
100
AcDbVertex
100
AcDb2dVertex
8
Layer01
10
127.387012
20
0.131573
30
0.0
0
VERTEX
100
AcDbVertex
100
AcDb2dVertex
8
Layer01
10
128.452998
20
0.142029
30
0.0
0
VERTEX
100
AcDbVertex
100
AcDb2dVertex
8
Layer01
10
128.985999
20
0.147355
30
0.0
0
VERTEX
100
AcDbVertex
100
AcDb2dVertex
8
Layer01
10
129.519
20
0.152743
30
0.0
0
VERTEX
100
AcDbVertex
100
AcDb2dVertex
8
Layer01
10
130.052001
20
0.158192
30
0.0
0
VERTEX
100
AcDbVertex
100
AcDb2dVertex
8
Layer01
10
130.585003
20
0.163701
30
0.0
0
VERTEX
100
AcDbVertex
100
AcDb2dVertex
8
Layer01
10
131.118004
20
0.169268
30
0.0
0
VERTEX
100
AcDbVertex
100
AcDb2dVertex
8
Layer01
10
131.651005
20
0.174892
30
0.0
0
VERTEX
100
AcDbVertex
100
AcDb2dVertex
8
Layer01
10
132.184006
20
0.180572
30
0.0
0
VERTEX
100
AcDbVertex
100
AcDb2dVertex
8
Layer01
10
132.717007
20
0.186306
30
0.0
0
VERTEX
100
AcDbVertex
100
AcDb2dVertex
8
Layer01
10
133.25
20
0.192093
30
0.0
0
VERTEX
100
AcDbVertex
100
AcDb2dVertex
8
Layer01
10
133.782993
20
0.197931
30
0.0
0
VERTEX
100
AcDbVertex
100
AcDb2dVertex
8
Layer01
10
134.315986
20
0.20382
30
0.0
0
VERTEX
100
AcDbVertex
100
AcDb2dVertex
8
Layer01
10
134.848979
20
0.209758
30
0.0
0
VERTEX
100
AcDbVertex
100
AcDb2dVertex
8
Layer01
10
135.381973
20
0.215745
30
0.0
0
VERTEX
100
AcDbVertex
100
AcDb2dVertex
8
Layer01
10
135.914966
20
0.22178
30
0.0
0
VERTEX
100
AcDbVertex
100
AcDb2dVertex
8
Layer01
10
136.447959
20
0.227862
30
0.0
0
VERTEX
100
AcDbVertex
100
AcDb2dVertex
8
Layer01
10
136.980952
20
0.23399
30
0.0
0
VERTEX
100
AcDbVertex
100
AcDb2dVertex
8
Layer01
10
137.513945
20
0.240163
30
0.0
0
VERTEX
100
AcDbVertex
100
AcDb2dVertex
8
Layer01
10
138.046938
20
0.246381
30
0.0
0
VERTEX
100
AcDbVertex
100
AcDb2dVertex
8
Layer01
10
138.579931
20
0.252641
30
0.0
0
VERTEX
100
AcDbVertex
100
AcDb2dVertex
8
Layer01
10
139.112988
20
0.258946
30
0.0
0
VERTEX
100
AcDbVertex
100
AcDb2dVertex
8
Layer01
10
139.645981
20
0.265291
30
0.0
0
VERTEX
100
AcDbVertex
100
AcDb2dVertex
8
Layer01
10
140.178974
20
0.271678
30
0.0
0
VERTEX
100
AcDbVertex
100
AcDb2dVertex
8
Layer01
10
140.711967
20
0.278104
30
0.0
0
VERTEX
100
AcDbVertex
100
AcDb2dVertex
8
Layer01
10
141.244961
20
0.284569
30
0.0
0
VERTEX
100
AcDbVertex
100
AcDb2dVertex
8
Layer01
10
141.777954
20
0.291073
30
0.0
0
VERTEX
100
AcDbVertex
100
AcDb2dVertex
8
Layer01
10
142.310947
20
0.297614
30
0.0
0
VERTEX
100
AcDbVertex
100
AcDb2dVertex
8
Layer01
10
142.84394
20
0.304191
30
0.0
0
VERTEX
100
AcDbVertex
100
AcDb2dVertex
8
Layer01
10
143.376933
20
0.310805
30
0.0
0
VERTEX
100
AcDbVertex
100
AcDb2dVertex
8
Layer01
10
143.909926
20
0.317454
30
0.0
0
VERTEX
100
AcDbVertex
100
AcDb2dVertex
8
Layer01
10
144.442999
20
0.324138
30
0.0
0
VERTEX
100
AcDbVertex
100
AcDb2dVertex
8
Layer01
10
144.975992
20
0.330855
30
0.0
0
VERTEX
100
AcDbVertex
100
AcDb2dVertex
8
Layer01
10
145.508985
20
0.337605
30
0.0
0
VERTEX
100
AcDbVertex
100
AcDb2dVertex
8
Layer01
10
146.041978
20
0.344388
30
0.0
0
VERTEX
100
AcDbVertex
100
AcDb2dVertex
8
Layer01
10
146.574971
20
0.351202
30
0.0
0
VERTEX
100
AcDbVertex
100
AcDb2dVertex
8
Layer01
10
147.107965
20
0.358048
30
0.0
0
VERTEX
100
AcDbVertex
100
AcDb2dVertex
8
Layer01
10
147.640958
20
0.364924
30
0.0
0
VERTEX
100
AcDbVertex
100
AcDb2dVertex
8
Layer01
10
148.173951
20
0.37183
30
0.0
0
VERTEX
100
AcDbVertex
100
AcDb2dVertex
8
Layer01
10
148.706944
20
0.378766
30
0.0
0
VERTEX
100
AcDbVertex
100
AcDb2dVertex
8
Layer01
10
149.239937
20
0.385731
30
0.0
0
VERTEX
100
AcDbVertex
100
AcDb2dVertex
8
Layer01
10
149.772994
20
0.392752
30
0.0
0
VERTEX
100
AcDbVertex
100
AcDb2dVertex
8
Layer01
10
150.305987
20
0.399798
30
0.0
0
VERTEX
100
AcDbVertex
100
AcDb2dVertex
8
Layer01
10
150.83898
20
0.406868
30
0.0
0
VERTEX
100
AcDbVertex
100
AcDb2dVertex
8
Layer01
10
151.371973
20
0.413959
30
0.0
0
VERTEX
100
AcDbVertex
100
AcDb2dVertex
8
Layer01
10
151.904966
20
0.42107
30
0.0
0
VERTEX
100
AcDbVertex
100
AcDb2dVertex
8
Layer01
10
152.437959
20
0.4282
30
0.0
0
VERTEX
100
AcDbVertex
100
AcDb2dVertex
8
Layer01
10
152.970953
20
0.435346
30
0.0
0
VERTEX
100
AcDbVertex
100
AcDb2dVertex
8
Layer01
10
153.503946
20
0.44251
30
0.0
0
VERTEX
100
AcDbVertex
100
AcDb2dVertex
8
Layer01
10
154.036939
20
0.449689
30
0.0
0
VERTEX
100
AcDbVertex
100
AcDb2dVertex
8
Layer01
10
154.569932
20
0.456887
30
0.0
0
VERTEX
100
AcDbVertex
100
AcDb2dVertex
8
Layer01
10
155.102989
20
0.463994
30
0.0
0
VERTEX
100
AcDbVertex
100
AcDb2dVertex
8
Layer01
10
155.635982
20
0.47113
30
0.0
0
VERTEX
100
AcDbVertex
100
AcDb2dVertex
8
Layer01
10
156.168975
20
0.478307
30
0.0
0
VERTEX
100
AcDbVertex
100
AcDb2dVertex
8
Layer01
10
156.701968
20
0.485534
30
0.0
0
VERTEX
100
AcDbVertex
100
AcDb2dVertex
8
Layer01
10
157.234961
20
0.492825
30
0.0
0
VERTEX
100
AcDbVertex
100
AcDb2dVertex
8
Layer01
10
157.767954
20
0.50019
30
0.0
0
VERTEX
100
AcDbVertex
100
AcDb2dVertex
8
Layer01
10
158.300948
20
0.507641
30
0.0
0
VERTEX
100
AcDbVertex
100
AcDb2dVertex
8
Layer01
10
158.833941
20
0.515187
30
0.0
0
VERTEX
100
AcDbVertex
100
AcDb2dVertex
8
Layer01
10
159.366934
20
0.522837
30
0.0
0
VERTEX
100
AcDbVertex
100
AcDb2dVertex
8
Layer01
10
159.899927
20
0.5306
30
0.0
0
VERTEX
100
AcDbVertex
100
AcDb2dVertex
8
Layer01
10
160.432999
20
0.538649
30
0.0
0
VERTEX
100
AcDbVertex
100
AcDb2dVertex
8
Layer01
10
160.965993
20
0.546808
30
0.0
0
VERTEX
100
AcDbVertex
100
AcDb2dVertex
8
Layer01
10
161.498986
20
0.55507
30
0.0
0
VERTEX
100
AcDbVertex
100
AcDb2dVertex
8
Layer01
10
162.031979
20
0.563426
30
0.0
0
VERTEX
100
AcDbVertex
100
AcDb2dVertex
8
Layer01
10
162.564972
20
0.571863
30
0.0
0
VERTEX
100
AcDbVertex
100
AcDb2dVertex
8
Layer01
10
163.097965
20
0.580372
30
0.0
0
VERTEX
100
AcDbVertex
100
AcDb2dVertex
8
Layer01
10
163.630958
20
0.588938
30
0.0
0
VERTEX
100
AcDbVertex
100
AcDb2dVertex
8
Layer01
10
164.163951
20
0.597551
30
0.0
0
VERTEX
100
AcDbVertex
100
AcDb2dVertex
8
Layer01
10
164.696945
20
0.606198
30
0.0
0
VERTEX
100
AcDbVertex
100
AcDb2dVertex
8
Layer01
10
165.229938
20
0.614868
30
0.0
0
VERTEX
100
AcDbVertex
100
AcDb2dVertex
8
Layer01
10
165.762994
20
0.623441
30
0.0
0
VERTEX
100
AcDbVertex
100
AcDb2dVertex
8
Layer01
10
166.295988
20
0.632021
30
0.0
0
VERTEX
100
AcDbVertex
100
AcDb2dVertex
8
Layer01
10
166.828981
20
0.640609
30
0.0
0
VERTEX
100
AcDbVertex
100
AcDb2dVertex
8
Layer01
10
167.361974
20
0.649202
30
0.0
0
VERTEX
100
AcDbVertex
100
AcDb2dVertex
8
Layer01
10
167.894967
20
0.657801
30
0.0
0
VERTEX
100
AcDbVertex
100
AcDb2dVertex
8
Layer01
10
168.42796
20
0.666406
30
0.0
0
VERTEX
100
AcDbVertex
100
AcDb2dVertex
8
Layer01
10
168.960953
20
0.675016
30
0.0
0
VERTEX
100
AcDbVertex
100
AcDb2dVertex
8
Layer01
10
169.493946
20
0.683634
30
0.0
0
VERTEX
100
AcDbVertex
100
AcDb2dVertex
8
Layer01
10
170.02694
20
0.692259
30
0.0
0
VERTEX
100
AcDbVertex
100
AcDb2dVertex
8
Layer01
10
170.559933
20
0.700894
30
0.0
0
VERTEX
100
AcDbVertex
100
AcDb2dVertex
8
Layer01
10
171.092989
20
0.709566
30
0.0
0
VERTEX
100
AcDbVertex
100
AcDb2dVertex
8
Layer01
10
171.625982
20
0.718247
30
0.0
0
VERTEX
100
AcDbVertex
100
AcDb2dVertex
8
Layer01
10
172.158976
20
0.726938
30
0.0
0
VERTEX
100
AcDbVertex
100
AcDb2dVertex
8
Layer01
10
172.691969
20
0.735637
30
0.0
0
VERTEX
100
AcDbVertex
100
AcDb2dVertex
8
Layer01
10
173.224962
20
0.744344
30
0.0
0
VERTEX
100
AcDbVertex
100
AcDb2dVertex
8
Layer01
10
173.757955
20
0.75306
30
0.0
0
VERTEX
100
AcDbVertex
100
AcDb2dVertex
8
Layer01
10
174.290948
20
0.761782
30
0.0
0
VERTEX
100
AcDbVertex
100
AcDb2dVertex
8
Layer01
10
174.823941
20
0.770511
30
0.0
0
VERTEX
100
AcDbVertex
100
AcDb2dVertex
8
Layer01
10
175.356934
20
0.779246
30
0.0
0
VERTEX
100
AcDbVertex
100
AcDb2dVertex
8
Layer01
10
175.889928
20
0.787986
30
0.0
0
VERTEX
100
AcDbVertex
100
AcDb2dVertex
8
Layer01
10
176.423
20
0.796733
30
0.0
0
VERTEX
100
AcDbVertex
100
AcDb2dVertex
8
Layer01
10
176.955993
20
0.805484
30
0.0
0
VERTEX
100
AcDbVertex
100
AcDb2dVertex
8
Layer01
10
177.488986
20
0.814238
30
0.0
0
VERTEX
100
AcDbVertex
100
AcDb2dVertex
8
Layer01
10
178.02198
20
0.822994
30
0.0
0
VERTEX
100
AcDbVertex
100
AcDb2dVertex
8
Layer01
10
178.554973
20
0.831753
30
0.0
0
VERTEX
100
AcDbVertex
100
AcDb2dVertex
8
Layer01
10
179.087966
20
0.840514
30
0.0
0
VERTEX
100
AcDbVertex
100
AcDb2dVertex
8
Layer01
10
179.620959
20
0.849275
30
0.0
0
VERTEX
100
AcDbVertex
100
AcDb2dVertex
8
Layer01
10
180.153952
20
0.858037
30
0.0
0
VERTEX
100
AcDbVertex
100
AcDb2dVertex
8
Layer01
10
180.686945
20
0.866798
30
0.0
0
VERTEX
100
AcDbVertex
100
AcDb2dVertex
8
Layer01
10
181.219938
20
0.875558
30
0.0
0
VERTEX
100
AcDbVertex
100
AcDb2dVertex
8
Layer01
10
181.752995
20
0.884317
30
0.0
0
VERTEX
100
AcDbVertex
100
AcDb2dVertex
8
Layer01
10
182.285988
20
0.893073
30
0.0
0
VERTEX
100
AcDbVertex
100
AcDb2dVertex
8
Layer01
10
182.818981
20
0.901825
30
0.0
0
VERTEX
100
AcDbVertex
100
AcDb2dVertex
8
Layer01
10
183.351974
20
0.910575
30
0.0
0
VERTEX
100
AcDbVertex
100
AcDb2dVertex
8
Layer01
10
183.884968
20
0.91932
30
0.0
0
VERTEX
100
AcDbVertex
100
AcDb2dVertex
8
Layer01
10
184.417961
20
0.928061
30
0.0
0
VERTEX
100
AcDbVertex
100
AcDb2dVertex
8
Layer01
10
184.950954
20
0.936797
30
0.0
0
VERTEX
100
AcDbVertex
100
AcDb2dVertex
8
Layer01
10
185.483947
20
0.945528
30
0.0
0
VERTEX
100
AcDbVertex
100
AcDb2dVertex
8
Layer01
10
186.01694
20
0.954252
30
0.0
0
VERTEX
100
AcDbVertex
100
AcDb2dVertex
8
Layer01
10
186.549933
20
0.96297
30
0.0
0
VERTEX
100
AcDbVertex
100
AcDb2dVertex
8
Layer01
10
187.08299
20
0.971682
30
0.0
0
VERTEX
100
AcDbVertex
100
AcDb2dVertex
8
Layer01
10
187.615983
20
0.980385
30
0.0
0
VERTEX
100
AcDbVertex
100
AcDb2dVertex
8
Layer01
10
188.148976
20
0.98908
30
0.0
0
VERTEX
100
AcDbVertex
100
AcDb2dVertex
8
Layer01
10
188.681969
20
0.997767
30
0.0
0
VERTEX
100
AcDbVertex
100
AcDb2dVertex
8
Layer01
10
189.214963
20
1.006445
30
0.0
0
VERTEX
100
AcDbVertex
100
AcDb2dVertex
8
Layer01
10
189.747956
20
1.015113
30
0.0
0
VERTEX
100
AcDbVertex
100
AcDb2dVertex
8
Layer01
10
190.280949
20
1.023773
30
0.0
0
VERTEX
100
AcDbVertex
100
AcDb2dVertex
8
Layer01
10
190.813942
20
1.032422
30
0.0
0
VERTEX
100
AcDbVertex
100
AcDb2dVertex
8
Layer01
10
191.346935
20
1.041061
30
0.0
0
VERTEX
100
AcDbVertex
100
AcDb2dVertex
8
Layer01
10
191.879928
20
1.049689
30
0.0
0
VERTEX
100
AcDbVertex
100
AcDb2dVertex
8
Layer01
10
192.413001
20
1.058308
30
0.0
0
VERTEX
100
AcDbVertex
100
AcDb2dVertex
8
Layer01
10
192.945994
20
1.066914
30
0.0
0
VERTEX
100
AcDbVertex
100
AcDb2dVertex
8
Layer01
10
193.478987
20
1.075507
30
0.0
0
VERTEX
100
AcDbVertex
100
AcDb2dVertex
8
Layer01
10
194.01198
20
1.084089
30
0.0
0
VERTEX
100
AcDbVertex
100
AcDb2dVertex
8
Layer01
10
194.544973
20
1.092657
30
0.0
0
VERTEX
100
AcDbVertex
100
AcDb2dVertex
8
Layer01
10
195.077966
20
1.101212
30
0.0
0
VERTEX
100
AcDbVertex
100
AcDb2dVertex
8
Layer01
10
195.61096
20
1.109753
30
0.0
0
VERTEX
100
AcDbVertex
100
AcDb2dVertex
8
Layer01
10
196.143953
20
1.11828
30
0.0
0
VERTEX
100
AcDbVertex
100
AcDb2dVertex
8
Layer01
10
196.676946
20
1.126792
30
0.0
0
VERTEX
100
AcDbVertex
100
AcDb2dVertex
8
Layer01
10
197.209939
20
1.135289
30
0.0
0
VERTEX
100
AcDbVertex
100
AcDb2dVertex
8
Layer01
10
197.742996
20
1.143772
30
0.0
0
VERTEX
100
AcDbVertex
100
AcDb2dVertex
8
Layer01
10
198.275989
20
1.152237
30
0.0
0
VERTEX
100
AcDbVertex
100
AcDb2dVertex
8
Layer01
10
198.808982
20
1.160687
30
0.0
0
VERTEX
100
AcDbVertex
100
AcDb2dVertex
8
Layer01
10
199.341975
20
1.169119
30
0.0
0
VERTEX
100
AcDbVertex
100
AcDb2dVertex
8
Layer01
10
199.874968
20
1.177535
30
0.0
0
VERTEX
100
AcDbVertex
100
AcDb2dVertex
8
Layer01
10
200.407961
20
1.185933
30
0.0
0
VERTEX
100
AcDbVertex
100
AcDb2dVertex
8
Layer01
10
200.940955
20
1.194313
30
0.0
0
VERTEX
100
AcDbVertex
100
AcDb2dVertex
8
Layer01
10
201.473948
20
1.202675
30
0.0
0
VERTEX
100
AcDbVertex
100
AcDb2dVertex
8
Layer01
10
202.006941
20
1.211019
30
0.0
0
VERTEX
100
AcDbVertex
100
AcDb2dVertex
8
Layer01
10
202.539934
20
1.219343
30
0.0
0
VERTEX
100
AcDbVertex
100
AcDb2dVertex
8
Layer01
10
203.072991
20
1.22765
30
0.0
0
VERTEX
100
AcDbVertex
100
AcDb2dVertex
8
Layer01
10
203.605984
20
1.235935
30
0.0
0
VERTEX
100
AcDbVertex
100
AcDb2dVertex
8
Layer01
10
204.138977
20
1.244201
30
0.0
0
VERTEX
100
AcDbVertex
100
AcDb2dVertex
8
Layer01
10
204.67197
20
1.252447
30
0.0
0
VERTEX
100
AcDbVertex
100
AcDb2dVertex
8
Layer01
10
205.204963
20
1.260672
30
0.0
0
VERTEX
100
AcDbVertex
100
AcDb2dVertex
8
Layer01
10
205.737956
20
1.268876
30
0.0
0
VERTEX
100
AcDbVertex
100
AcDb2dVertex
8
Layer01
10
206.270949
20
1.277059
30
0.0
0
VERTEX
100
AcDbVertex
100
AcDb2dVertex
8
Layer01
10
206.803943
20
1.285221
30
0.0
0
VERTEX
100
AcDbVertex
100
AcDb2dVertex
8
Layer01
10
207.336936
20
1.29336
30
0.0
0
VERTEX
100
AcDbVertex
100
AcDb2dVertex
8
Layer01
10
207.869929
20
1.301478
30
0.0
0
VERTEX
100
AcDbVertex
100
AcDb2dVertex
8
Layer01
10
208.402986
20
1.309572
30
0.0
0
VERTEX
100
AcDbVertex
100
AcDb2dVertex
8
Layer01
10
208.935979
20
1.317643
30
0.0
0
VERTEX
100
AcDbVertex
100
AcDb2dVertex
8
Layer01
10
209.468972
20
1.325691
30
0.0
0
VERTEX
100
AcDbVertex
100
AcDb2dVertex
8
Layer01
10
210.001965
20
1.333718
30
0.0
0
VERTEX
100
AcDbVertex
100
AcDb2dVertex
8
Layer01
10
210.534958
20
1.341724
30
0.0
0
VERTEX
100
AcDbVertex
100
AcDb2dVertex
8
Layer01
10
211.067951
20
1.349708
30
0.0
0
VERTEX
100
AcDbVertex
100
AcDb2dVertex
8
Layer01
10
211.600944
20
1.35767
30
0.0
0
VERTEX
100
AcDbVertex
100
AcDb2dVertex
8
Layer01
10
212.133937
20
1.365611
30
0.0
0
VERTEX
100
AcDbVertex
100
AcDb2dVertex
8
Layer01
10
212.666931
20
1.37353
30
0.0
0
VERTEX
100
AcDbVertex
100
AcDb2dVertex
8
Layer01
10
213.199924
20
1.381428
30
0.0
0
VERTEX
100
AcDbVertex
100
AcDb2dVertex
8
Layer01
10
213.732996
20
1.389312
30
0.0
0
VERTEX
100
AcDbVertex
100
AcDb2dVertex
8
Layer01
10
214.265989
20
1.397172
30
0.0
0
VERTEX
100
AcDbVertex
100
AcDb2dVertex
8
Layer01
10
214.798983
20
1.40501
30
0.0
0
VERTEX
100
AcDbVertex
100
AcDb2dVertex
8
Layer01
10
215.331976
20
1.412825
30
0.0
0
VERTEX
100
AcDbVertex
100
AcDb2dVertex
8
Layer01
10
215.864969
20
1.420616
30
0.0
0
VERTEX
100
AcDbVertex
100
AcDb2dVertex
8
Layer01
10
216.397962
20
1.428383
30
0.0
0
VERTEX
100
AcDbVertex
100
AcDb2dVertex
8
Layer01
10
216.930955
20
1.436124
30
0.0
0
VERTEX
100
AcDbVertex
100
AcDb2dVertex
8
Layer01
10
217.463948
20
1.44384
30
0.0
0
VERTEX
100
AcDbVertex
100
AcDb2dVertex
8
Layer01
10
217.996941
20
1.45153
30
0.0
0
VERTEX
100
AcDbVertex
100
AcDb2dVertex
8
Layer01
10
218.529935
20
1.459193
30
0.0
0
VERTEX
100
AcDbVertex
100
AcDb2dVertex
8
Layer01
10
219.062991
20
1.466825
30
0.0
0
VERTEX
100
AcDbVertex
100
AcDb2dVertex
8
Layer01
10
219.595984
20
1.474428
30
0.0
0
VERTEX
100
AcDbVertex
100
AcDb2dVertex
8
Layer01
10
220.128978
20
1.482003
30
0.0
0
VERTEX
100
AcDbVertex
100
AcDb2dVertex
8
Layer01
10
220.661971
20
1.489551
30
0.0
0
VERTEX
100
AcDbVertex
100
AcDb2dVertex
8
Layer01
10
221.194964
20
1.49707
30
0.0
0
VERTEX
100
AcDbVertex
100
AcDb2dVertex
8
Layer01
10
221.727957
20
1.504561
30
0.0
0
VERTEX
100
AcDbVertex
100
AcDb2dVertex
8
Layer01
10
222.26095
20
1.512023
30
0.0
0
VERTEX
100
AcDbVertex
100
AcDb2dVertex
8
Layer01
10
222.793943
20
1.519457
30
0.0
0
VERTEX
100
AcDbVertex
100
AcDb2dVertex
8
Layer01
10
223.326936
20
1.526863
30
0.0
0
VERTEX
100
AcDbVertex
100
AcDb2dVertex
8
Layer01
10
223.859929
20
1.53424
30
0.0
0
VERTEX
100
AcDbVertex
100
AcDb2dVertex
8
Layer01
10
224.392986
20
1.541591
30
0.0
0
VERTEX
100
AcDbVertex
100
AcDb2dVertex
8
Layer01
10
224.925979
20
1.548913
30
0.0
0
VERTEX
100
AcDbVertex
100
AcDb2dVertex
8
Layer01
10
225.458972
20
1.556205
30
0.0
0
VERTEX
100
AcDbVertex
100
AcDb2dVertex
8
Layer01
10
225.991966
20
1.563468
30
0.0
0
VERTEX
100
AcDbVertex
100
AcDb2dVertex
8
Layer01
10
226.524959
20
1.570701
30
0.0
0
VERTEX
100
AcDbVertex
100
AcDb2dVertex
8
Layer01
10
227.057952
20
1.577904
30
0.0
0
VERTEX
100
AcDbVertex
100
AcDb2dVertex
8
Layer01
10
227.590945
20
1.585076
30
0.0
0
VERTEX
100
AcDbVertex
100
AcDb2dVertex
8
Layer01
10
228.123938
20
1.592218
30
0.0
0
VERTEX
100
AcDbVertex
100
AcDb2dVertex
8
Layer01
10
228.656931
20
1.599328
30
0.0
0
VERTEX
100
AcDbVertex
100
AcDb2dVertex
8
Layer01
10
229.189924
20
1.606408
30
0.0
0
VERTEX
100
AcDbVertex
100
AcDb2dVertex
8
Layer01
10
229.722997
20
1.613455
30
0.0
0
VERTEX
100
AcDbVertex
100
AcDb2dVertex
8
Layer01
10
230.25599
20
1.62047
30
0.0
0
VERTEX
100
AcDbVertex
100
AcDb2dVertex
8
Layer01
10
230.788983
20
1.627453
30
0.0
0
VERTEX
100
AcDbVertex
100
AcDb2dVertex
8
Layer01
10
231.321976
20
1.634404
30
0.0
0
VERTEX
100
AcDbVertex
100
AcDb2dVertex
8
Layer01
10
231.85497
20
1.641323
30
0.0
0
VERTEX
100
AcDbVertex
100
AcDb2dVertex
8
Layer01
10
232.387963
20
1.648209
30
0.0
0
VERTEX
100
AcDbVertex
100
AcDb2dVertex
8
Layer01
10
232.920956
20
1.655064
30
0.0
0
VERTEX
100
AcDbVertex
100
AcDb2dVertex
8
Layer01
10
233.453949
20
1.661885
30
0.0
0
VERTEX
100
AcDbVertex
100
AcDb2dVertex
8
Layer01
10
233.986942
20
1.668675
30
0.0
0
VERTEX
100
AcDbVertex
100
AcDb2dVertex
8
Layer01
10
234.519935
20
1.675431
30
0.0
0
VERTEX
100
AcDbVertex
100
AcDb2dVertex
8
Layer01
10
235.052992
20
1.682156
30
0.0
0
VERTEX
100
AcDbVertex
100
AcDb2dVertex
8
Layer01
10
235.585985
20
1.688846
30
0.0
0
VERTEX
100
AcDbVertex
100
AcDb2dVertex
8
Layer01
10
236.118978
20
1.695505
30
0.0
0
VERTEX
100
AcDbVertex
100
AcDb2dVertex
8
Layer01
10
236.651971
20
1.70213
30
0.0
0
VERTEX
100
AcDbVertex
100
AcDb2dVertex
8
Layer01
10
237.184964
20
1.708724
30
0.0
0
VERTEX
100
AcDbVertex
100
AcDb2dVertex
8
Layer01
10
237.717958
20
1.715284
30
0.0
0
VERTEX
100
AcDbVertex
100
AcDb2dVertex
8
Layer01
10
238.250951
20
1.721813
30
0.0
0
VERTEX
100
AcDbVertex
100
AcDb2dVertex
8
Layer01
10
238.783944
20
1.728309
30
0.0
0
VERTEX
100
AcDbVertex
100
AcDb2dVertex
8
Layer01
10
239.316937
20
1.734772
30
0.0
0
VERTEX
100
AcDbVertex
100
AcDb2dVertex
8
Layer01
10
239.84993
20
1.741204
30
0.0
0
VERTEX
100
AcDbVertex
100
AcDb2dVertex
8
Layer01
10
240.382987
20
1.747605
30
0.0
0
VERTEX
100
AcDbVertex
100
AcDb2dVertex
8
Layer01
10
240.91598
20
1.753973
30
0.0
0
VERTEX
100
AcDbVertex
100
AcDb2dVertex
8
Layer01
10
241.448973
20
1.760309
30
0.0
0
VERTEX
100
AcDbVertex
100
AcDb2dVertex
8
Layer01
10
241.981966
20
1.766611
30
0.0
0
VERTEX
100
AcDbVertex
100
AcDb2dVertex
8
Layer01
10
242.514959
20
1.772881
30
0.0
0
VERTEX
100
AcDbVertex
100
AcDb2dVertex
8
Layer01
10
243.047952
20
1.779117
30
0.0
0
VERTEX
100
AcDbVertex
100
AcDb2dVertex
8
Layer01
10
243.580946
20
1.78532
30
0.0
0
VERTEX
100
AcDbVertex
100
AcDb2dVertex
8
Layer01
10
244.113939
20
1.791488
30
0.0
0
VERTEX
100
AcDbVertex
100
AcDb2dVertex
8
Layer01
10
244.646932
20
1.797623
30
0.0
0
VERTEX
100
AcDbVertex
100
AcDb2dVertex
8
Layer01
10
245.179925
20
1.803724
30
0.0
0
VERTEX
100
AcDbVertex
100
AcDb2dVertex
8
Layer01
10
245.712998
20
1.80979
30
0.0
0
VERTEX
100
AcDbVertex
100
AcDb2dVertex
8
Layer01
10
246.245991
20
1.815821
30
0.0
0
VERTEX
100
AcDbVertex
100
AcDb2dVertex
8
Layer01
10
246.778984
20
1.821817
30
0.0
0
VERTEX
100
AcDbVertex
100
AcDb2dVertex
8
Layer01
10
247.311977
20
1.82778
30
0.0
0
VERTEX
100
AcDbVertex
100
AcDb2dVertex
8
Layer01
10
247.84497
20
1.833707
30
0.0
0
VERTEX
100
AcDbVertex
100
AcDb2dVertex
8
Layer01
10
248.377963
20
1.839601
30
0.0
0
VERTEX
100
AcDbVertex
100
AcDb2dVertex
8
Layer01
10
248.910956
20
1.845461
30
0.0
0
VERTEX
100
AcDbVertex
100
AcDb2dVertex
8
Layer01
10
249.44395
20
1.851286
30
0.0
0
VERTEX
100
AcDbVertex
100
AcDb2dVertex
8
Layer01
10
249.976943
20
1.857077
30
0.0
0
VERTEX
100
AcDbVertex
100
AcDb2dVertex
8
Layer01
10
250.509936
20
1.862834
30
0.0
0
VERTEX
100
AcDbVertex
100
AcDb2dVertex
8
Layer01
10
251.042993
20
1.868559
30
0.0
0
VERTEX
100
AcDbVertex
100
AcDb2dVertex
8
Layer01
10
251.575986
20
1.87425
30
0.0
0
VERTEX
100
AcDbVertex
100
AcDb2dVertex
8
Layer01
10
252.108979
20
1.879906
30
0.0
0
VERTEX
100
AcDbVertex
100
AcDb2dVertex
8
Layer01
10
252.641972
20
1.885528
30
0.0
0
VERTEX
100
AcDbVertex
100
AcDb2dVertex
8
Layer01
10
253.174965
20
1.891115
30
0.0
0
VERTEX
100
AcDbVertex
100
AcDb2dVertex
8
Layer01
10
253.707958
20
1.896668
30
0.0
0
VERTEX
100
AcDbVertex
100
AcDb2dVertex
8
Layer01
10
254.240951
20
1.902186
30
0.0
0
VERTEX
100
AcDbVertex
100
AcDb2dVertex
8
Layer01
10
254.773944
20
1.90767
30
0.0
0
VERTEX
100
AcDbVertex
100
AcDb2dVertex
8
Layer01
10
255.306938
20
1.913119
30
0.0
0
VERTEX
100
AcDbVertex
100
AcDb2dVertex
8
Layer01
10
255.839931
20
1.918533
30
0.0
0
VERTEX
100
AcDbVertex
100
AcDb2dVertex
8
Layer01
10
256.372987
20
1.923902
30
0.0
0
VERTEX
100
AcDbVertex
100
AcDb2dVertex
8
Layer01
10
256.905981
20
1.929236
30
0.0
0
VERTEX
100
AcDbVertex
100
AcDb2dVertex
8
Layer01
10
257.438974
20
1.934537
30
0.0
0
VERTEX
100
AcDbVertex
100
AcDb2dVertex
8
Layer01
10
257.971967
20
1.939806
30
0.0
0
VERTEX
100
AcDbVertex
100
AcDb2dVertex
8
Layer01
10
258.50496
20
1.945043
30
0.0
0
VERTEX
100
AcDbVertex
100
AcDb2dVertex
8
Layer01
10
259.037953
20
1.950249
30
0.0
0
VERTEX
100
AcDbVertex
100
AcDb2dVertex
8
Layer01
10
259.570946
20
1.955424
30
0.0
0
VERTEX
100
AcDbVertex
100
AcDb2dVertex
8
Layer01
10
260.103939
20
1.960569
30
0.0
0
VERTEX
100
AcDbVertex
100
AcDb2dVertex
8
Layer01
10
260.636933
20
1.965683
30
0.0
0
VERTEX
100
AcDbVertex
100
AcDb2dVertex
8
Layer01
10
261.169926
20
1.970767
30
0.0
0
VERTEX
100
AcDbVertex
100
AcDb2dVertex
8
Layer01
10
261.702998
20
1.97586
30
0.0
0
VERTEX
100
AcDbVertex
100
AcDb2dVertex
8
Layer01
10
262.235991
20
1.980918
30
0.0
0
VERTEX
100
AcDbVertex
100
AcDb2dVertex
8
Layer01
10
262.768984
20
1.985937
30
0.0
0
VERTEX
100
AcDbVertex
100
AcDb2dVertex
8
Layer01
10
263.301978
20
1.990912
30
0.0
0
VERTEX
100
AcDbVertex
100
AcDb2dVertex
8
Layer01
10
263.834971
20
1.995841
30
0.0
0
VERTEX
100
AcDbVertex
100
AcDb2dVertex
8
Layer01
10
264.367964
20
2.000719
30
0.0
0
VERTEX
100
AcDbVertex
100
AcDb2dVertex
8
Layer01
10
264.900957
20
2.005541
30
0.0
0
VERTEX
100
AcDbVertex
100
AcDb2dVertex
8
Layer01
10
265.43395
20
2.010305
30
0.0
0
VERTEX
100
AcDbVertex
100
AcDb2dVertex
8
Layer01
10
265.966943
20
2.015006
30
0.0
0
VERTEX
100
AcDbVertex
100
AcDb2dVertex
8
Layer01
10
266.499936
20
2.019643
30
0.0
0
VERTEX
100
AcDbVertex
100
AcDb2dVertex
8
Layer01
10
267.032993
20
2.024153
30
0.0
0
VERTEX
100
AcDbVertex
100
AcDb2dVertex
8
Layer01
10
267.565986
20
2.028598
30
0.0
0
VERTEX
100
AcDbVertex
100
AcDb2dVertex
8
Layer01
10
268.098979
20
2.032982
30
0.0
0
VERTEX
100
AcDbVertex
100
AcDb2dVertex
8
Layer01
10
268.631973
20
2.037307
30
0.0
0
VERTEX
100
AcDbVertex
100
AcDb2dVertex
8
Layer01
10
269.164966
20
2.041579
30
0.0
0
VERTEX
100
AcDbVertex
100
AcDb2dVertex
8
Layer01
10
269.697959
20
2.045801
30
0.0
0
VERTEX
100
AcDbVertex
100
AcDb2dVertex
8
Layer01
10
270.230952
20
2.049979
30
0.0
0
VERTEX
100
AcDbVertex
100
AcDb2dVertex
8
Layer01
10
270.763945
20
2.054115
30
0.0
0
VERTEX
100
AcDbVertex
100
AcDb2dVertex
8
Layer01
10
271.296938
20
2.058215
30
0.0
0
VERTEX
100
AcDbVertex
100
AcDb2dVertex
8
Layer01
10
271.829931
20
2.062283
30
0.0
0
VERTEX
100
AcDbVertex
100
AcDb2dVertex
8
Layer01
10
272.362988
20
2.066364
30
0.0
0
VERTEX
100
AcDbVertex
100
AcDb2dVertex
8
Layer01
10
272.895981
20
2.070417
30
0.0
0
VERTEX
100
AcDbVertex
100
AcDb2dVertex
8
Layer01
10
273.428974
20
2.074443
30
0.0
0
VERTEX
100
AcDbVertex
100
AcDb2dVertex
8
Layer01
10
273.961967
20
2.078443
30
0.0
0
VERTEX
100
AcDbVertex
100
AcDb2dVertex
8
Layer01
10
274.494961
20
2.082417
30
0.0
0
VERTEX
100
AcDbVertex
100
AcDb2dVertex
8
Layer01
10
275.027954
20
2.086364
30
0.0
0
VERTEX
100
AcDbVertex
100
AcDb2dVertex
8
Layer01
10
275.560947
20
2.090285
30
0.0
0
VERTEX
100
AcDbVertex
100
AcDb2dVertex
8
Layer01
10
276.09394
20
2.094179
30
0.0
0
VERTEX
100
AcDbVertex
100
AcDb2dVertex
8
Layer01
10
276.626933
20
2.098046
30
0.0
0
VERTEX
100
AcDbVertex
100
AcDb2dVertex
8
Layer01
10
277.159926
20
2.101885
30
0.0
0
VERTEX
100
AcDbVertex
100
AcDb2dVertex
8
Layer01
10
277.692983
20
2.105685
30
0.0
0
VERTEX
100
AcDbVertex
100
AcDb2dVertex
8
Layer01
10
278.225976
20
2.109457
30
0.0
0
VERTEX
100
AcDbVertex
100
AcDb2dVertex
8
Layer01
10
278.758969
20
2.113201
30
0.0
0
VERTEX
100
AcDbVertex
100
AcDb2dVertex
8
Layer01
10
279.291962
20
2.116918
30
0.0
0
VERTEX
100
AcDbVertex
100
AcDb2dVertex
8
Layer01
10
279.824956
20
2.120607
30
0.0
0
VERTEX
100
AcDbVertex
100
AcDb2dVertex
8
Layer01
10
280.357949
20
2.12427
30
0.0
0
VERTEX
100
AcDbVertex
100
AcDb2dVertex
8
Layer01
10
280.890942
20
2.127907
30
0.0
0
VERTEX
100
AcDbVertex
100
AcDb2dVertex
8
Layer01
10
281.423935
20
2.131518
30
0.0
0
VERTEX
100
AcDbVertex
100
AcDb2dVertex
8
Layer01
10
281.956928
20
2.135102
30
0.0
0
VERTEX
100
AcDbVertex
100
AcDb2dVertex
8
Layer01
10
282.489921
20
2.138662
30
0.0
0
VERTEX
100
AcDbVertex
100
AcDb2dVertex
8
Layer01
10
283.022978
20
2.142197
30
0.0
0
VERTEX
100
AcDbVertex
100
AcDb2dVertex
8
Layer01
10
283.555971
20
2.145708
30
0.0
0
VERTEX
100
AcDbVertex
100
AcDb2dVertex
8
Layer01
10
284.088964
20
2.149194
30
0.0
0
VERTEX
100
AcDbVertex
100
AcDb2dVertex
8
Layer01
10
284.621957
20
2.152655
30
0.0
0
VERTEX
100
AcDbVertex
100
AcDb2dVertex
8
Layer01
10
285.15495
20
2.156093
30
0.0
0
VERTEX
100
AcDbVertex
100
AcDb2dVertex
8
Layer01
10
285.687944
20
2.159508
30
0.0
0
VERTEX
100
AcDbVertex
100
AcDb2dVertex
8
Layer01
10
286.220937
20
2.162899
30
0.0
0
VERTEX
100
AcDbVertex
100
AcDb2dVertex
8
Layer01
10
286.75393
20
2.166266
30
0.0
0
VERTEX
100
AcDbVertex
100
AcDb2dVertex
8
Layer01
10
287.286923
20
2.169611
30
0.0
0
VERTEX
100
AcDbVertex
100
AcDb2dVertex
8
Layer01
10
287.819916
20
2.172934
30
0.0
0
VERTEX
100
AcDbVertex
100
AcDb2dVertex
8
Layer01
10
288.353005
20
2.176235
30
0.0
0
VERTEX
100
AcDbVertex
100
AcDb2dVertex
8
Layer01
10
288.885998
20
2.179513
30
0.0
0
VERTEX
100
AcDbVertex
100
AcDb2dVertex
8
Layer01
10
289.418991
20
2.18277
30
0.0
0
VERTEX
100
AcDbVertex
100
AcDb2dVertex
8
Layer01
10
289.951984
20
2.186004
30
0.0
0
VERTEX
100
AcDbVertex
100
AcDb2dVertex
8
Layer01
10
290.484977
20
2.189217
30
0.0
0
VERTEX
100
AcDbVertex
100
AcDb2dVertex
8
Layer01
10
291.01797
20
2.192409
30
0.0
0
VERTEX
100
AcDbVertex
100
AcDb2dVertex
8
Layer01
10
291.550963
20
2.19558
30
0.0
0
VERTEX
100
AcDbVertex
100
AcDb2dVertex
8
Layer01
10
292.083957
20
2.19873
30
0.0
0
VERTEX
100
AcDbVertex
100
AcDb2dVertex
8
Layer01
10
292.61695
20
2.201859
30
0.0
0
VERTEX
100
AcDbVertex
100
AcDb2dVertex
8
Layer01
10
293.149943
20
2.204967
30
0.0
0
VERTEX
100
AcDbVertex
100
AcDb2dVertex
8
Layer01
10
293.682999
20
2.208055
30
0.0
0
VERTEX
100
AcDbVertex
100
AcDb2dVertex
8
Layer01
10
294.215993
20
2.211122
30
0.0
0
VERTEX
100
AcDbVertex
100
AcDb2dVertex
8
Layer01
10
294.748986
20
2.21417
30
0.0
0
VERTEX
100
AcDbVertex
100
AcDb2dVertex
8
Layer01
10
295.281979
20
2.217198
30
0.0
0
VERTEX
100
AcDbVertex
100
AcDb2dVertex
8
Layer01
10
295.814972
20
2.220207
30
0.0
0
VERTEX
100
AcDbVertex
100
AcDb2dVertex
8
Layer01
10
296.347965
20
2.223198
30
0.0
0
VERTEX
100
AcDbVertex
100
AcDb2dVertex
8
Layer01
10
296.880958
20
2.226169
30
0.0
0
VERTEX
100
AcDbVertex
100
AcDb2dVertex
8
Layer01
10
297.413951
20
2.229122
30
0.0
0
VERTEX
100
AcDbVertex
100
AcDb2dVertex
8
Layer01
10
297.946945
20
2.232058
30
0.0
0
VERTEX
100
AcDbVertex
100
AcDb2dVertex
8
Layer01
10
298.479938
20
2.234975
30
0.0
0
VERTEX
100
AcDbVertex
100
AcDb2dVertex
8
Layer01
10
299.012994
20
2.237876
30
0.0
0
VERTEX
100
AcDbVertex
100
AcDb2dVertex
8
Layer01
10
299.545988
20
2.24076
30
0.0
0
VERTEX
100
AcDbVertex
100
AcDb2dVertex
8
Layer01
10
300.078981
20
2.243626
30
0.0
0
VERTEX
100
AcDbVertex
100
AcDb2dVertex
8
Layer01
10
300.611974
20
2.246475
30
0.0
0
VERTEX
100
AcDbVertex
100
AcDb2dVertex
8
Layer01
10
301.144967
20
2.249308
30
0.0
0
VERTEX
100
AcDbVertex
100
AcDb2dVertex
8
Layer01
10
301.67796
20
2.252124
30
0.0
0
VERTEX
100
AcDbVertex
100
AcDb2dVertex
8
Layer01
10
302.210953
20
2.254923
30
0.0
0
VERTEX
100
AcDbVertex
100
AcDb2dVertex
8
Layer01
10
302.743946
20
2.257706
30
0.0
0
VERTEX
100
AcDbVertex
100
AcDb2dVertex
8
Layer01
10
303.27694
20
2.260473
30
0.0
0
VERTEX
100
AcDbVertex
100
AcDb2dVertex
8
Layer01
10
303.809933
20
2.263224
30
0.0
0
VERTEX
100
AcDbVertex
100
AcDb2dVertex
8
Layer01
10
304.342989
20
2.265959
30
0.0
0
VERTEX
100
AcDbVertex
100
AcDb2dVertex
8
Layer01
10
304.875982
20
2.268679
30
0.0
0
VERTEX
100
AcDbVertex
100
AcDb2dVertex
8
Layer01
10
305.408976
20
2.271382
30
0.0
0
VERTEX
100
AcDbVertex
100
AcDb2dVertex
8
Layer01
10
305.941969
20
2.27407
30
0.0
0
VERTEX
100
AcDbVertex
100
AcDb2dVertex
8
Layer01
10
306.474962
20
2.276742
30
0.0
0
VERTEX
100
AcDbVertex
100
AcDb2dVertex
8
Layer01
10
307.007955
20
2.279399
30
0.0
0
VERTEX
100
AcDbVertex
100
AcDb2dVertex
8
Layer01
10
307.540948
20
2.28204
30
0.0
0
VERTEX
100
AcDbVertex
100
AcDb2dVertex
8
Layer01
10
308.073941
20
2.284667
30
0.0
0
VERTEX
100
AcDbVertex
100
AcDb2dVertex
8
Layer01
10
308.606934
20
2.287278
30
0.0
0
VERTEX
100
AcDbVertex
100
AcDb2dVertex
8
Layer01
10
309.139928
20
2.289874
30
0.0
0
VERTEX
100
AcDbVertex
100
AcDb2dVertex
8
Layer01
10
309.672984
20
2.292491
30
0.0
0
VERTEX
100
AcDbVertex
100
AcDb2dVertex
8
Layer01
10
310.205977
20
2.29509
30
0.0
0
VERTEX
100
AcDbVertex
100
AcDb2dVertex
8
Layer01
10
310.738971
20
2.297669
30
0.0
0
VERTEX
100
AcDbVertex
100
AcDb2dVertex
8
Layer01
10
311.271964
20
2.300226
30
0.0
0
VERTEX
100
AcDbVertex
100
AcDb2dVertex
8
Layer01
10
311.804957
20
2.302759
30
0.0
0
VERTEX
100
AcDbVertex
100
AcDb2dVertex
8
Layer01
10
312.33795
20
2.305266
30
0.0
0
VERTEX
100
AcDbVertex
100
AcDb2dVertex
8
Layer01
10
312.870943
20
2.307747
30
0.0
0
VERTEX
100
AcDbVertex
100
AcDb2dVertex
8
Layer01
10
313.403936
20
2.310201
30
0.0
0
VERTEX
100
AcDbVertex
100
AcDb2dVertex
8
Layer01
10
313.936929
20
2.312629
30
0.0
0
VERTEX
100
AcDbVertex
100
AcDb2dVertex
8
Layer01
10
314.469922
20
2.315032
30
0.0
0
VERTEX
100
AcDbVertex
100
AcDb2dVertex
8
Layer01
10
315.002979
20
2.317267
30
0.0
0
VERTEX
100
AcDbVertex
100
AcDb2dVertex
8
Layer01
10
315.535972
20
2.319494
30
0.0
0
VERTEX
100
AcDbVertex
100
AcDb2dVertex
8
Layer01
10
316.068965
20
2.321728
30
0.0
0
VERTEX
100
AcDbVertex
100
AcDb2dVertex
8
Layer01
10
316.601959
20
2.323983
30
0.0
0
VERTEX
100
AcDbVertex
100
AcDb2dVertex
8
Layer01
10
317.134952
20
2.326276
30
0.0
0
VERTEX
100
AcDbVertex
100
AcDb2dVertex
8
Layer01
10
317.667945
20
2.328621
30
0.0
0
VERTEX
100
AcDbVertex
100
AcDb2dVertex
8
Layer01
10
318.200938
20
2.331033
30
0.0
0
VERTEX
100
AcDbVertex
100
AcDb2dVertex
8
Layer01
10
318.733931
20
2.333526
30
0.0
0
VERTEX
100
AcDbVertex
100
AcDb2dVertex
8
Layer01
10
319.266924
20
2.336113
30
0.0
0
VERTEX
100
AcDbVertex
100
AcDb2dVertex
8
Layer01
10
319.799917
20
2.338804
30
0.0
0
VERTEX
100
AcDbVertex
100
AcDb2dVertex
8
Layer01
10
320.333006
20
2.341827
30
0.0
0
VERTEX
100
AcDbVertex
100
AcDb2dVertex
8
Layer01
10
320.865999
20
2.344953
30
0.0
0
VERTEX
100
AcDbVertex
100
AcDb2dVertex
8
Layer01
10
321.398992
20
2.348171
30
0.0
0
VERTEX
100
AcDbVertex
100
AcDb2dVertex
8
Layer01
10
321.931985
20
2.351466
30
0.0
0
VERTEX
100
AcDbVertex
100
AcDb2dVertex
8
Layer01
10
322.464978
20
2.354825
30
0.0
0
VERTEX
100
AcDbVertex
100
AcDb2dVertex
8
Layer01
10
322.997972
20
2.358232
30
0.0
0
VERTEX
100
AcDbVertex
100
AcDb2dVertex
8
Layer01
10
323.530965
20
2.36167
30
0.0
0
VERTEX
100
AcDbVertex
100
AcDb2dVertex
8
Layer01
10
324.063958
20
2.365123
30
0.0
0
VERTEX
100
AcDbVertex
100
AcDb2dVertex
8
Layer01
10
324.596951
20
2.368575
30
0.0
0
VERTEX
100
AcDbVertex
100
AcDb2dVertex
8
Layer01
10
325.129944
20
2.37201
30
0.0
0
VERTEX
100
AcDbVertex
100
AcDb2dVertex
8
Layer01
10
325.663001
20
2.375267
30
0.0
0
VERTEX
100
AcDbVertex
100
AcDb2dVertex
8
Layer01
10
326.195994
20
2.378489
30
0.0
0
VERTEX
100
AcDbVertex
100
AcDb2dVertex
8
Layer01
10
326.728987
20
2.381673
30
0.0
0
VERTEX
100
AcDbVertex
100
AcDb2dVertex
8
Layer01
10
327.26198
20
2.384818
30
0.0
0
VERTEX
100
AcDbVertex
100
AcDb2dVertex
8
Layer01
10
327.794973
20
2.387923
30
0.0
0
VERTEX
100
AcDbVertex
100
AcDb2dVertex
8
Layer01
10
328.327966
20
2.390989
30
0.0
0
VERTEX
100
AcDbVertex
100
AcDb2dVertex
8
Layer01
10
328.86096
20
2.394015
30
0.0
0
VERTEX
100
AcDbVertex
100
AcDb2dVertex
8
Layer01
10
329.393953
20
2.397003
30
0.0
0
VERTEX
100
AcDbVertex
100
AcDb2dVertex
8
Layer01
10
329.926946
20
2.399954
30
0.0
0
VERTEX
100
AcDbVertex
100
AcDb2dVertex
8
Layer01
10
330.459939
20
2.40287
30
0.0
0
VERTEX
100
AcDbVertex
100
AcDb2dVertex
8
Layer01
10
330.992996
20
2.405788
30
0.0
0
VERTEX
100
AcDbVertex
100
AcDb2dVertex
8
Layer01
10
331.525989
20
2.408671
30
0.0
0
VERTEX
100
AcDbVertex
100
AcDb2dVertex
8
Layer01
10
332.058982
20
2.411518
30
0.0
0
VERTEX
100
AcDbVertex
100
AcDb2dVertex
8
Layer01
10
332.591975
20
2.414328
30
0.0
0
VERTEX
100
AcDbVertex
100
AcDb2dVertex
8
Layer01
10
333.124968
20
2.417102
30
0.0
0
VERTEX
100
AcDbVertex
100
AcDb2dVertex
8
Layer01
10
333.657961
20
2.419836
30
0.0
0
VERTEX
100
AcDbVertex
100
AcDb2dVertex
8
Layer01
10
334.190955
20
2.422532
30
0.0
0
VERTEX
100
AcDbVertex
100
AcDb2dVertex
8
Layer01
10
334.723948
20
2.425187
30
0.0
0
VERTEX
100
AcDbVertex
100
AcDb2dVertex
8
Layer01
10
335.256941
20
2.427801
30
0.0
0
VERTEX
100
AcDbVertex
100
AcDb2dVertex
8
Layer01
10
335.789934
20
2.430373
30
0.0
0
VERTEX
100
AcDbVertex
100
AcDb2dVertex
8
Layer01
10
336.322991
20
2.432902
30
0.0
0
VERTEX
100
AcDbVertex
100
AcDb2dVertex
8
Layer01
10
336.855984
20
2.435387
30
0.0
0
VERTEX
100
AcDbVertex
100
AcDb2dVertex
8
Layer01
10
337.388977
20
2.437827
30
0.0
0
VERTEX
100
AcDbVertex
100
AcDb2dVertex
8
Layer01
10
337.92197
20
2.44022
30
0.0
0
VERTEX
100
AcDbVertex
100
AcDb2dVertex
8
Layer01
10
338.454963
20
2.442567
30
0.0
0
VERTEX
100
AcDbVertex
100
AcDb2dVertex
8
Layer01
10
338.987956
20
2.444866
30
0.0
0
VERTEX
100
AcDbVertex
100
AcDb2dVertex
8
Layer01
10
339.520949
20
2.447115
30
0.0
0
VERTEX
100
AcDbVertex
100
AcDb2dVertex
8
Layer01
10
340.053943
20
2.449314
30
0.0
0
VERTEX
100
AcDbVertex
100
AcDb2dVertex
8
Layer01
10
340.586936
20
2.451463
30
0.0
0
VERTEX
100
AcDbVertex
100
AcDb2dVertex
8
Layer01
10
341.119929
20
2.453559
30
0.0
0
VERTEX
100
AcDbVertex
100
AcDb2dVertex
8
Layer01
10
341.652986
20
2.455603
30
0.0
0
VERTEX
100
AcDbVertex
100
AcDb2dVertex
8
Layer01
10
342.185979
20
2.457593
30
0.0
0
VERTEX
100
AcDbVertex
100
AcDb2dVertex
8
Layer01
10
342.718972
20
2.459527
30
0.0
0
VERTEX
100
AcDbVertex
100
AcDb2dVertex
8
Layer01
10
343.251965
20
2.461404
30
0.0
0
VERTEX
100
AcDbVertex
100
AcDb2dVertex
8
Layer01
10
343.784958
20
2.463224
30
0.0
0
VERTEX
100
AcDbVertex
100
AcDb2dVertex
8
Layer01
10
344.317951
20
2.464985
30
0.0
0
VERTEX
100
AcDbVertex
100
AcDb2dVertex
8
Layer01
10
344.850944
20
2.466685
30
0.0
0
VERTEX
100
AcDbVertex
100
AcDb2dVertex
8
Layer01
10
345.383937
20
2.468324
30
0.0
0
VERTEX
100
AcDbVertex
100
AcDb2dVertex
8
Layer01
10
345.916931
20
2.469901
30
0.0
0
VERTEX
100
AcDbVertex
100
AcDb2dVertex
8
Layer01
10
346.449924
20
2.471414
30
0.0
0
VERTEX
100
AcDbVertex
100
AcDb2dVertex
8
Layer01
10
346.98298
20
2.472861
30
0.0
0
VERTEX
100
AcDbVertex
100
AcDb2dVertex
8
Layer01
10
347.515974
20
2.474242
30
0.0
0
VERTEX
100
AcDbVertex
100
AcDb2dVertex
8
Layer01
10
348.048967
20
2.475556
30
0.0
0
VERTEX
100
AcDbVertex
100
AcDb2dVertex
8
Layer01
10
348.58196
20
2.476803
30
0.0
0
VERTEX
100
AcDbVertex
100
AcDb2dVertex
8
Layer01
10
349.114953
20
2.477981
30
0.0
0
VERTEX
100
AcDbVertex
100
AcDb2dVertex
8
Layer01
10
349.647946
20
2.479091
30
0.0
0
VERTEX
100
AcDbVertex
100
AcDb2dVertex
8
Layer01
10
350.180939
20
2.48013
30
0.0
0
VERTEX
100
AcDbVertex
100
AcDb2dVertex
8
Layer01
10
350.713932
20
2.481099
30
0.0
0
VERTEX
100
AcDbVertex
100
AcDb2dVertex
8
Layer01
10
351.246926
20
2.481996
30
0.0
0
VERTEX
100
AcDbVertex
100
AcDb2dVertex
8
Layer01
10
351.779919
20
2.48282
30
0.0
0
VERTEX
100
AcDbVertex
100
AcDb2dVertex
8
Layer01
10
352.313007
20
2.483573
30
0.0
0
VERTEX
100
AcDbVertex
100
AcDb2dVertex
8
Layer01
10
352.846
20
2.484251
30
0.0
0
VERTEX
100
AcDbVertex
100
AcDb2dVertex
8
Layer01
10
353.378993
20
2.484854
30
0.0
0
VERTEX
100
AcDbVertex
100
AcDb2dVertex
8
Layer01
10
353.911987
20
2.48538
30
0.0
0
VERTEX
100
AcDbVertex
100
AcDb2dVertex
8
Layer01
10
354.44498
20
2.485829
30
0.0
0
VERTEX
100
AcDbVertex
100
AcDb2dVertex
8
Layer01
10
354.977973
20
2.486199
30
0.0
0
VERTEX
100
AcDbVertex
100
AcDb2dVertex
8
Layer01
10
355.510966
20
2.486489
30
0.0
0
VERTEX
100
AcDbVertex
100
AcDb2dVertex
8
Layer01
10
356.043959
20
2.486698
30
0.0
0
VERTEX
100
AcDbVertex
100
AcDb2dVertex
8
Layer01
10
356.576952
20
2.486826
30
0.0
0
VERTEX
100
AcDbVertex
100
AcDb2dVertex
8
Layer01
10
357.109945
20
2.486871
30
0.0
0
VERTEX
100
AcDbVertex
100
AcDb2dVertex
8
Layer01
10
357.643002
20
2.486832
30
0.0
0
VERTEX
100
AcDbVertex
100
AcDb2dVertex
8
Layer01
10
358.175995
20
2.486708
30
0.0
0
VERTEX
100
AcDbVertex
100
AcDb2dVertex
8
Layer01
10
358.708988
20
2.486499
30
0.0
0
VERTEX
100
AcDbVertex
100
AcDb2dVertex
8
Layer01
10
359.241981
20
2.486202
30
0.0
0
VERTEX
100
AcDbVertex
100
AcDb2dVertex
8
Layer01
10
359.774975
20
2.485819
30
0.0
0
VERTEX
100
AcDbVertex
100
AcDb2dVertex
8
Layer01
10
360.307968
20
2.485346
30
0.0
0
VERTEX
100
AcDbVertex
100
AcDb2dVertex
8
Layer01
10
360.840961
20
2.484785
30
0.0
0
VERTEX
100
AcDbVertex
100
AcDb2dVertex
8
Layer01
10
361.373954
20
2.484133
30
0.0
0
VERTEX
100
AcDbVertex
100
AcDb2dVertex
8
Layer01
10
361.906947
20
2.483389
30
0.0
0
VERTEX
100
AcDbVertex
100
AcDb2dVertex
8
Layer01
10
362.43994
20
2.482554
30
0.0
0
VERTEX
100
AcDbVertex
100
AcDb2dVertex
8
Layer01
10
362.972997
20
2.481602
30
0.0
0
VERTEX
100
AcDbVertex
100
AcDb2dVertex
8
Layer01
10
363.50599
20
2.480558
30
0.0
0
VERTEX
100
AcDbVertex
100
AcDb2dVertex
8
Layer01
10
364.038983
20
2.479424
30
0.0
0
VERTEX
100
AcDbVertex
100
AcDb2dVertex
8
Layer01
10
364.571976
20
2.478198
30
0.0
0
VERTEX
100
AcDbVertex
100
AcDb2dVertex
8
Layer01
10
365.10497
20
2.476884
30
0.0
0
VERTEX
100
AcDbVertex
100
AcDb2dVertex
8
Layer01
10
365.637963
20
2.47548
30
0.0
0
VERTEX
100
AcDbVertex
100
AcDb2dVertex
8
Layer01
10
366.170956
20
2.473986
30
0.0
0
VERTEX
100
AcDbVertex
100
AcDb2dVertex
8
Layer01
10
366.703949
20
2.472403
30
0.0
0
VERTEX
100
AcDbVertex
100
AcDb2dVertex
8
Layer01
10
367.236942
20
2.470729
30
0.0
0
VERTEX
100
AcDbVertex
100
AcDb2dVertex
8
Layer01
10
367.769935
20
2.468963
30
0.0
0
VERTEX
100
AcDbVertex
100
AcDb2dVertex
8
Layer01
10
368.302992
20
2.467198
30
0.0
0
VERTEX
100
AcDbVertex
100
AcDb2dVertex
8
Layer01
10
368.835985
20
2.465328
30
0.0
0
VERTEX
100
AcDbVertex
100
AcDb2dVertex
8
Layer01
10
369.368978
20
2.463344
30
0.0
0
VERTEX
100
AcDbVertex
100
AcDb2dVertex
8
Layer01
10
369.901971
20
2.461234
30
0.0
0
VERTEX
100
AcDbVertex
100
AcDb2dVertex
8
Layer01
10
370.434964
20
2.458988
30
0.0
0
VERTEX
100
AcDbVertex
100
AcDb2dVertex
8
Layer01
10
370.967958
20
2.456594
30
0.0
0
VERTEX
100
AcDbVertex
100
AcDb2dVertex
8
Layer01
10
371.500951
20
2.454042
30
0.0
0
VERTEX
100
AcDbVertex
100
AcDb2dVertex
8
Layer01
10
372.033944
20
2.451324
30
0.0
0
VERTEX
100
AcDbVertex
100
AcDb2dVertex
8
Layer01
10
372.566937
20
2.448429
30
0.0
0
VERTEX
100
AcDbVertex
100
AcDb2dVertex
8
Layer01
10
373.09993
20
2.445351
30
0.0
0
VERTEX
100
AcDbVertex
100
AcDb2dVertex
8
Layer01
10
373.632987
20
2.441938
30
0.0
0
VERTEX
100
AcDbVertex
100
AcDb2dVertex
8
Layer01
10
374.16598
20
2.438341
30
0.0
0
VERTEX
100
AcDbVertex
100
AcDb2dVertex
8
Layer01
10
374.698973
20
2.434567
30
0.0
0
VERTEX
100
AcDbVertex
100
AcDb2dVertex
8
Layer01
10
375.231966
20
2.430623
30
0.0
0
VERTEX
100
AcDbVertex
100
AcDb2dVertex
8
Layer01
10
375.764959
20
2.426519
30
0.0
0
VERTEX
100
AcDbVertex
100
AcDb2dVertex
8
Layer01
10
376.297952
20
2.422264
30
0.0
0
VERTEX
100
AcDbVertex
100
AcDb2dVertex
8
Layer01
10
376.830946
20
2.417869
30
0.0
0
VERTEX
100
AcDbVertex
100
AcDb2dVertex
8
Layer01
10
377.363939
20
2.413342
30
0.0
0
VERTEX
100
AcDbVertex
100
AcDb2dVertex
8
Layer01
10
377.896932
20
2.408695
30
0.0
0
VERTEX
100
AcDbVertex
100
AcDb2dVertex
8
Layer01
10
378.429925
20
2.403937
30
0.0
0
VERTEX
100
AcDbVertex
100
AcDb2dVertex
8
Layer01
10
378.962982
20
2.399172
30
0.0
0
VERTEX
100
AcDbVertex
100
AcDb2dVertex
8
Layer01
10
379.495975
20
2.394308
30
0.0
0
VERTEX
100
AcDbVertex
100
AcDb2dVertex
8
Layer01
10
380.028968
20
2.389344
30
0.0
0
VERTEX
100
AcDbVertex
100
AcDb2dVertex
8
Layer01
10
380.561961
20
2.384283
30
0.0
0
VERTEX
100
AcDbVertex
100
AcDb2dVertex
8
Layer01
10
381.094954
20
2.379122
30
0.0
0
VERTEX
100
AcDbVertex
100
AcDb2dVertex
8
Layer01
10
381.627947
20
2.373862
30
0.0
0
VERTEX
100
AcDbVertex
100
AcDb2dVertex
8
Layer01
10
382.160941
20
2.368502
30
0.0
0
VERTEX
100
AcDbVertex
100
AcDb2dVertex
8
Layer01
10
382.693934
20
2.363041
30
0.0
0
VERTEX
100
AcDbVertex
100
AcDb2dVertex
8
Layer01
10
383.226927
20
2.357478
30
0.0
0
VERTEX
100
AcDbVertex
100
AcDb2dVertex
8
Layer01
10
383.75992
20
2.35181
30
0.0
0
VERTEX
100
AcDbVertex
100
AcDb2dVertex
8
Layer01
10
384.293008
20
2.346013
30
0.0
0
VERTEX
100
AcDbVertex
100
AcDb2dVertex
8
Layer01
10
384.826002
20
2.340112
30
0.0
0
VERTEX
100
AcDbVertex
100
AcDb2dVertex
8
Layer01
10
385.358995
20
2.334106
30
0.0
0
VERTEX
100
AcDbVertex
100
AcDb2dVertex
8
Layer01
10
385.891988
20
2.327994
30
0.0
0
VERTEX
100
AcDbVertex
100
AcDb2dVertex
8
Layer01
10
386.424981
20
2.321778
30
0.0
0
VERTEX
100
AcDbVertex
100
AcDb2dVertex
8
Layer01
10
386.957974
20
2.315457
30
0.0
0
VERTEX
100
AcDbVertex
100
AcDb2dVertex
8
Layer01
10
387.490967
20
2.309031
30
0.0
0
VERTEX
100
AcDbVertex
100
AcDb2dVertex
8
Layer01
10
388.02396
20
2.302501
30
0.0
0
VERTEX
100
AcDbVertex
100
AcDb2dVertex
8
Layer01
10
388.556953
20
2.295867
30
0.0
0
VERTEX
100
AcDbVertex
100
AcDb2dVertex
8
Layer01
10
389.089947
20
2.289129
30
0.0
0
VERTEX
100
AcDbVertex
100
AcDb2dVertex
8
Layer01
10
389.623003
20
2.282286
30
0.0
0
VERTEX
100
AcDbVertex
100
AcDb2dVertex
8
Layer01
10
390.155996
20
2.275341
30
0.0
0
VERTEX
100
AcDbVertex
100
AcDb2dVertex
8
Layer01
10
390.68899
20
2.268293
30
0.0
0
VERTEX
100
AcDbVertex
100
AcDb2dVertex
8
Layer01
10
391.221983
20
2.261142
30
0.0
0
VERTEX
100
AcDbVertex
100
AcDb2dVertex
8
Layer01
10
391.754976
20
2.253889
30
0.0
0
VERTEX
100
AcDbVertex
100
AcDb2dVertex
8
Layer01
10
392.287969
20
2.246535
30
0.0
0
VERTEX
100
AcDbVertex
100
AcDb2dVertex
8
Layer01
10
392.820962
20
2.239079
30
0.0
0
VERTEX
100
AcDbVertex
100
AcDb2dVertex
8
Layer01
10
393.353955
20
2.231522
30
0.0
0
VERTEX
100
AcDbVertex
100
AcDb2dVertex
8
Layer01
10
393.886948
20
2.223865
30
0.0
0
VERTEX
100
AcDbVertex
100
AcDb2dVertex
8
Layer01
10
394.419942
20
2.216108
30
0.0
0
VERTEX
100
AcDbVertex
100
AcDb2dVertex
8
Layer01
10
394.952998
20
2.20825
30
0.0
0
VERTEX
100
AcDbVertex
100
AcDb2dVertex
8
Layer01
10
395.485991
20
2.200295
30
0.0
0
VERTEX
100
AcDbVertex
100
AcDb2dVertex
8
Layer01
10
396.018984
20
2.192241
30
0.0
0
VERTEX
100
AcDbVertex
100
AcDb2dVertex
8
Layer01
10
396.551978
20
2.18409
30
0.0
0
VERTEX
100
AcDbVertex
100
AcDb2dVertex
8
Layer01
10
397.084971
20
2.175842
30
0.0
0
VERTEX
100
AcDbVertex
100
AcDb2dVertex
8
Layer01
10
397.617964
20
2.167497
30
0.0
0
VERTEX
100
AcDbVertex
100
AcDb2dVertex
8
Layer01
10
398.150957
20
2.159058
30
0.0
0
VERTEX
100
AcDbVertex
100
AcDb2dVertex
8
Layer01
10
398.68395
20
2.150524
30
0.0
0
VERTEX
100
AcDbVertex
100
AcDb2dVertex
8
Layer01
10
399.216943
20
2.141895
30
0.0
0
VERTEX
100
AcDbVertex
100
AcDb2dVertex
8
Layer01
10
399.749936
20
2.133174
30
0.0
0
VERTEX
100
AcDbVertex
100
AcDb2dVertex
8
Layer01
10
400.282993
20
2.12436
30
0.0
0
VERTEX
100
AcDbVertex
100
AcDb2dVertex
8
Layer01
10
400.815986
20
2.115456
30
0.0
0
VERTEX
100
AcDbVertex
100
AcDb2dVertex
8
Layer01
10
401.348979
20
2.10646
30
0.0
0
VERTEX
100
AcDbVertex
100
AcDb2dVertex
8
Layer01
10
401.881973
20
2.097372
30
0.0
0
VERTEX
100
AcDbVertex
100
AcDb2dVertex
8
Layer01
10
402.414966
20
2.088194
30
0.0
0
VERTEX
100
AcDbVertex
100
AcDb2dVertex
8
Layer01
10
402.947959
20
2.078926
30
0.0
0
VERTEX
100
AcDbVertex
100
AcDb2dVertex
8
Layer01
10
403.480952
20
2.069569
30
0.0
0
VERTEX
100
AcDbVertex
100
AcDb2dVertex
8
Layer01
10
404.013945
20
2.060122
30
0.0
0
VERTEX
100
AcDbVertex
100
AcDb2dVertex
8
Layer01
10
404.546938
20
2.050588
30
0.0
0
VERTEX
100
AcDbVertex
100
AcDb2dVertex
8
Layer01
10
405.079931
20
2.040965
30
0.0
0
VERTEX
100
AcDbVertex
100
AcDb2dVertex
8
Layer01
10
405.612988
20
2.031252
30
0.0
0
VERTEX
100
AcDbVertex
100
AcDb2dVertex
8
Layer01
10
406.145981
20
2.021454
30
0.0
0
VERTEX
100
AcDbVertex
100
AcDb2dVertex
8
Layer01
10
406.678974
20
2.01157
30
0.0
0
VERTEX
100
AcDbVertex
100
AcDb2dVertex
8
Layer01
10
407.211967
20
2.001602
30
0.0
0
VERTEX
100
AcDbVertex
100
AcDb2dVertex
8
Layer01
10
407.744961
20
1.99155
30
0.0
0
VERTEX
100
AcDbVertex
100
AcDb2dVertex
8
Layer01
10
408.277954
20
1.981415
30
0.0
0
VERTEX
100
AcDbVertex
100
AcDb2dVertex
8
Layer01
10
408.810947
20
1.971199
30
0.0
0
VERTEX
100
AcDbVertex
100
AcDb2dVertex
8
Layer01
10
409.34394
20
1.960901
30
0.0
0
VERTEX
100
AcDbVertex
100
AcDb2dVertex
8
Layer01
10
409.876933
20
1.950524
30
0.0
0
VERTEX
100
AcDbVertex
100
AcDb2dVertex
8
Layer01
10
410.409926
20
1.940068
30
0.0
0
VERTEX
100
AcDbVertex
100
AcDb2dVertex
8
Layer01
10
410.942983
20
1.929534
30
0.0
0
VERTEX
100
AcDbVertex
100
AcDb2dVertex
8
Layer01
10
411.475976
20
1.918925
30
0.0
0
VERTEX
100
AcDbVertex
100
AcDb2dVertex
8
Layer01
10
412.008969
20
1.90824
30
0.0
0
VERTEX
100
AcDbVertex
100
AcDb2dVertex
8
Layer01
10
412.541962
20
1.897479
30
0.0
0
VERTEX
100
AcDbVertex
100
AcDb2dVertex
8
Layer01
10
413.074956
20
1.886644
30
0.0
0
VERTEX
100
AcDbVertex
100
AcDb2dVertex
8
Layer01
10
413.607949
20
1.875736
30
0.0
0
VERTEX
100
AcDbVertex
100
AcDb2dVertex
8
Layer01
10
414.140942
20
1.864756
30
0.0
0
VERTEX
100
AcDbVertex
100
AcDb2dVertex
8
Layer01
10
414.673935
20
1.853704
30
0.0
0
VERTEX
100
AcDbVertex
100
AcDb2dVertex
8
Layer01
10
415.206928
20
1.842581
30
0.0
0
VERTEX
100
AcDbVertex
100
AcDb2dVertex
8
Layer01
10
415.739921
20
1.83139
30
0.0
0
VERTEX
100
AcDbVertex
100
AcDb2dVertex
8
Layer01
10
416.272978
20
1.820161
30
0.0
0
VERTEX
100
AcDbVertex
100
AcDb2dVertex
8
Layer01
10
416.805971
20
1.808863
30
0.0
0
VERTEX
100
AcDbVertex
100
AcDb2dVertex
8
Layer01
10
417.338964
20
1.797495
30
0.0
0
VERTEX
100
AcDbVertex
100
AcDb2dVertex
8
Layer01
10
417.871957
20
1.786054
30
0.0
0
VERTEX
100
AcDbVertex
100
AcDb2dVertex
8
Layer01
10
418.40495
20
1.77454
30
0.0
0
VERTEX
100
AcDbVertex
100
AcDb2dVertex
8
Layer01
10
418.937944
20
1.762954
30
0.0
0
VERTEX
100
AcDbVertex
100
AcDb2dVertex
8
Layer01
10
419.470937
20
1.751294
30
0.0
0
VERTEX
100
AcDbVertex
100
AcDb2dVertex
8
Layer01
10
420.00393
20
1.739562
30
0.0
0
VERTEX
100
AcDbVertex
100
AcDb2dVertex
8
Layer01
10
420.536923
20
1.72776
30
0.0
0
VERTEX
100
AcDbVertex
100
AcDb2dVertex
8
Layer01
10
421.069916
20
1.715889
30
0.0
0
VERTEX
100
AcDbVertex
100
AcDb2dVertex
8
Layer01
10
421.603005
20
1.703828
30
0.0
0
VERTEX
100
AcDbVertex
100
AcDb2dVertex
8
Layer01
10
422.135998
20
1.691717
30
0.0
0
VERTEX
100
AcDbVertex
100
AcDb2dVertex
8
Layer01
10
422.668991
20
1.67957
30
0.0
0
VERTEX
100
AcDbVertex
100
AcDb2dVertex
8
Layer01
10
423.201984
20
1.6674
30
0.0
0
VERTEX
100
AcDbVertex
100
AcDb2dVertex
8
Layer01
10
423.734977
20
1.655223
30
0.0
0
VERTEX
100
AcDbVertex
100
AcDb2dVertex
8
Layer01
10
424.26797
20
1.643055
30
0.0
0
VERTEX
100
AcDbVertex
100
AcDb2dVertex
8
Layer01
10
424.800963
20
1.630908
30
0.0
0
VERTEX
100
AcDbVertex
100
AcDb2dVertex
8
Layer01
10
425.333957
20
1.618798
30
0.0
0
VERTEX
100
AcDbVertex
100
AcDb2dVertex
8
Layer01
10
425.86695
20
1.606737
30
0.0
0
VERTEX
100
AcDbVertex
100
AcDb2dVertex
8
Layer01
10
426.399943
20
1.594737
30
0.0
0
VERTEX
100
AcDbVertex
100
AcDb2dVertex
8
Layer01
10
426.932999
20
1.582974
30
0.0
0
VERTEX
100
AcDbVertex
100
AcDb2dVertex
8
Layer01
10
427.465993
20
1.571281
30
0.0
0
VERTEX
100
AcDbVertex
100
AcDb2dVertex
8
Layer01
10
427.998986
20
1.55965
30
0.0
0
VERTEX
100
AcDbVertex
100
AcDb2dVertex
8
Layer01
10
428.531979
20
1.548076
30
0.0
0
VERTEX
100
AcDbVertex
100
AcDb2dVertex
8
Layer01
10
429.064972
20
1.53655
30
0.0
0
VERTEX
100
AcDbVertex
100
AcDb2dVertex
8
Layer01
10
429.597965
20
1.525064
30
0.0
0
VERTEX
100
AcDbVertex
100
AcDb2dVertex
8
Layer01
10
430.130958
20
1.51361
30
0.0
0
VERTEX
100
AcDbVertex
100
AcDb2dVertex
8
Layer01
10
430.663951
20
1.502178
30
0.0
0
VERTEX
100
AcDbVertex
100
AcDb2dVertex
8
Layer01
10
431.196945
20
1.490759
30
0.0
0
VERTEX
100
AcDbVertex
100
AcDb2dVertex
8
Layer01
10
431.729938
20
1.479343
30
0.0
0
VERTEX
100
AcDbVertex
100
AcDb2dVertex
8
Layer01
10
432.262994
20
1.467825
30
0.0
0
VERTEX
100
AcDbVertex
100
AcDb2dVertex
8
Layer01
10
432.795988
20
1.456302
30
0.0
0
VERTEX
100
AcDbVertex
100
AcDb2dVertex
8
Layer01
10
433.328981
20
1.444772
30
0.0
0
VERTEX
100
AcDbVertex
100
AcDb2dVertex
8
Layer01
10
433.861974
20
1.433235
30
0.0
0
VERTEX
100
AcDbVertex
100
AcDb2dVertex
8
Layer01
10
434.394967
20
1.42169
30
0.0
0
VERTEX
100
AcDbVertex
100
AcDb2dVertex
8
Layer01
10
434.92796
20
1.41014
30
0.0
0
VERTEX
100
AcDbVertex
100
AcDb2dVertex
8
Layer01
10
435.460953
20
1.398584
30
0.0
0
VERTEX
100
AcDbVertex
100
AcDb2dVertex
8
Layer01
10
435.993946
20
1.387023
30
0.0
0
VERTEX
100
AcDbVertex
100
AcDb2dVertex
8
Layer01
10
436.52694
20
1.37546
30
0.0
0
VERTEX
100
AcDbVertex
100
AcDb2dVertex
8
Layer01
10
437.059933
20
1.363895
30
0.0
0
VERTEX
100
AcDbVertex
100
AcDb2dVertex
8
Layer01
10
437.592989
20
1.352348
30
0.0
0
VERTEX
100
AcDbVertex
100
AcDb2dVertex
8
Layer01
10
438.125982
20
1.340802
30
0.0
0
VERTEX
100
AcDbVertex
100
AcDb2dVertex
8
Layer01
10
438.658976
20
1.329256
30
0.0
0
VERTEX
100
AcDbVertex
100
AcDb2dVertex
8
Layer01
10
439.191969
20
1.317711
30
0.0
0
VERTEX
100
AcDbVertex
100
AcDb2dVertex
8
Layer01
10
439.724962
20
1.306165
30
0.0
0
VERTEX
100
AcDbVertex
100
AcDb2dVertex
8
Layer01
10
440.257955
20
1.294621
30
0.0
0
VERTEX
100
AcDbVertex
100
AcDb2dVertex
8
Layer01
10
440.790948
20
1.283077
30
0.0
0
VERTEX
100
AcDbVertex
100
AcDb2dVertex
8
Layer01
10
441.323941
20
1.271533
30
0.0
0
VERTEX
100
AcDbVertex
100
AcDb2dVertex
8
Layer01
10
441.856934
20
1.25999
30
0.0
0
VERTEX
100
AcDbVertex
100
AcDb2dVertex
8
Layer01
10
442.389928
20
1.248447
30
0.0
0
VERTEX
100
AcDbVertex
100
AcDb2dVertex
8
Layer01
10
442.922984
20
1.236906
30
0.0
0
VERTEX
100
AcDbVertex
100
AcDb2dVertex
8
Layer01
10
443.455977
20
1.225366
30
0.0
0
VERTEX
100
AcDbVertex
100
AcDb2dVertex
8
Layer01
10
443.988971
20
1.213827
30
0.0
0
VERTEX
100
AcDbVertex
100
AcDb2dVertex
8
Layer01
10
444.521964
20
1.202288
30
0.0
0
VERTEX
100
AcDbVertex
100
AcDb2dVertex
8
Layer01
10
445.054957
20
1.19075
30
0.0
0
VERTEX
100
AcDbVertex
100
AcDb2dVertex
8
Layer01
10
445.58795
20
1.179211
30
0.0
0
VERTEX
100
AcDbVertex
100
AcDb2dVertex
8
Layer01
10
446.120943
20
1.167672
30
0.0
0
VERTEX
100
AcDbVertex
100
AcDb2dVertex
8
Layer01
10
446.653936
20
1.156133
30
0.0
0
VERTEX
100
AcDbVertex
100
AcDb2dVertex
8
Layer01
10
447.186929
20
1.144593
30
0.0
0
VERTEX
100
AcDbVertex
100
AcDb2dVertex
8
Layer01
10
447.719922
20
1.133053
30
0.0
0
VERTEX
100
AcDbVertex
100
AcDb2dVertex
8
Layer01
10
448.252979
20
1.121509
30
0.0
0
VERTEX
100
AcDbVertex
100
AcDb2dVertex
8
Layer01
10
448.785972
20
1.109966
30
0.0
0
VERTEX
100
AcDbVertex
100
AcDb2dVertex
8
Layer01
10
449.318965
20
1.098423
30
0.0
0
VERTEX
100
AcDbVertex
100
AcDb2dVertex
8
Layer01
10
449.851959
20
1.086878
30
0.0
0
VERTEX
100
AcDbVertex
100
AcDb2dVertex
8
Layer01
10
450.384952
20
1.075334
30
0.0
0
VERTEX
100
AcDbVertex
100
AcDb2dVertex
8
Layer01
10
450.917945
20
1.063789
30
0.0
0
VERTEX
100
AcDbVertex
100
AcDb2dVertex
8
Layer01
10
451.450938
20
1.052243
30
0.0
0
VERTEX
100
AcDbVertex
100
AcDb2dVertex
8
Layer01
10
451.983931
20
1.040697
30
0.0
0
VERTEX
100
AcDbVertex
100
AcDb2dVertex
8
Layer01
10
452.516924
20
1.029151
30
0.0
0
VERTEX
100
AcDbVertex
100
AcDb2dVertex
8
Layer01
10
453.049917
20
1.017605
30
0.0
0
VERTEX
100
AcDbVertex
100
AcDb2dVertex
8
Layer01
10
453.583006
20
1.006057
30
0.0
0
VERTEX
100
AcDbVertex
100
AcDb2dVertex
8
Layer01
10
454.115999
20
0.994511
30
0.0
0
VERTEX
100
AcDbVertex
100
AcDb2dVertex
8
Layer01
10
454.648992
20
0.982966
30
0.0
0
VERTEX
100
AcDbVertex
100
AcDb2dVertex
8
Layer01
10
455.181985
20
0.97142
30
0.0
0
VERTEX
100
AcDbVertex
100
AcDb2dVertex
8
Layer01
10
455.714978
20
0.959875
30
0.0
0
VERTEX
100
AcDbVertex
100
AcDb2dVertex
8
Layer01
10
456.247972
20
0.94833
30
0.0
0
VERTEX
100
AcDbVertex
100
AcDb2dVertex
8
Layer01
10
456.780965
20
0.936786
30
0.0
0
VERTEX
100
AcDbVertex
100
AcDb2dVertex
8
Layer01
10
457.313958
20
0.925242
30
0.0
0
VERTEX
100
AcDbVertex
100
AcDb2dVertex
8
Layer01
10
457.846951
20
0.913699
30
0.0
0
VERTEX
100
AcDbVertex
100
AcDb2dVertex
8
Layer01
10
458.379944
20
0.902157
30
0.0
0
VERTEX
100
AcDbVertex
100
AcDb2dVertex
8
Layer01
10
458.913001
20
0.890615
30
0.0
0
VERTEX
100
AcDbVertex
100
AcDb2dVertex
8
Layer01
10
459.445994
20
0.879076
30
0.0
0
VERTEX
100
AcDbVertex
100
AcDb2dVertex
8
Layer01
10
459.978987
20
0.867537
30
0.0
0
VERTEX
100
AcDbVertex
100
AcDb2dVertex
8
Layer01
10
460.51198
20
0.855998
30
0.0
0
VERTEX
100
AcDbVertex
100
AcDb2dVertex
8
Layer01
10
461.044973
20
0.844459
30
0.0
0
VERTEX
100
AcDbVertex
100
AcDb2dVertex
8
Layer01
10
461.577966
20
0.83292
30
0.0
0
VERTEX
100
AcDbVertex
100
AcDb2dVertex
8
Layer01
10
462.11096
20
0.821382
30
0.0
0
VERTEX
100
AcDbVertex
100
AcDb2dVertex
8
Layer01
10
462.643953
20
0.809842
30
0.0
0
VERTEX
100
AcDbVertex
100
AcDb2dVertex
8
Layer01
10
463.176946
20
0.798303
30
0.0
0
VERTEX
100
AcDbVertex
100
AcDb2dVertex
8
Layer01
10
463.709939
20
0.786763
30
0.0
0
VERTEX
100
AcDbVertex
100
AcDb2dVertex
8
Layer01
10
464.242996
20
0.775219
30
0.0
0
VERTEX
100
AcDbVertex
100
AcDb2dVertex
8
Layer01
10
464.775989
20
0.763676
30
0.0
0
VERTEX
100
AcDbVertex
100
AcDb2dVertex
8
Layer01
10
465.308982
20
0.752132
30
0.0
0
VERTEX
100
AcDbVertex
100
AcDb2dVertex
8
Layer01
10
465.841975
20
0.740588
30
0.0
0
VERTEX
100
AcDbVertex
100
AcDb2dVertex
8
Layer01
10
466.374968
20
0.729043
30
0.0
0
VERTEX
100
AcDbVertex
100
AcDb2dVertex
8
Layer01
10
466.907961
20
0.717498
30
0.0
0
VERTEX
100
AcDbVertex
100
AcDb2dVertex
8
Layer01
10
467.440955
20
0.705953
30
0.0
0
VERTEX
100
AcDbVertex
100
AcDb2dVertex
8
Layer01
10
467.973948
20
0.694407
30
0.0
0
VERTEX
100
AcDbVertex
100
AcDb2dVertex
8
Layer01
10
468.506941
20
0.682861
30
0.0
0
VERTEX
100
AcDbVertex
100
AcDb2dVertex
8
Layer01
10
469.039934
20
0.671315
30
0.0
0
VERTEX
100
AcDbVertex
100
AcDb2dVertex
8
Layer01
10
469.572991
20
0.659834
30
0.0
0
VERTEX
100
AcDbVertex
100
AcDb2dVertex
8
Layer01
10
470.105984
20
0.64835
30
0.0
0
VERTEX
100
AcDbVertex
100
AcDb2dVertex
8
Layer01
10
470.638977
20
0.636856
30
0.0
0
VERTEX
100
AcDbVertex
100
AcDb2dVertex
8
Layer01
10
471.17197
20
0.625348
30
0.0
0
VERTEX
100
AcDbVertex
100
AcDb2dVertex
8
Layer01
10
471.704963
20
0.613823
30
0.0
0
VERTEX
100
AcDbVertex
100
AcDb2dVertex
8
Layer01
10
472.237956
20
0.602276
30
0.0
0
VERTEX
100
AcDbVertex
100
AcDb2dVertex
8
Layer01
10
472.770949
20
0.590708
30
0.0
0
VERTEX
100
AcDbVertex
100
AcDb2dVertex
8
Layer01
10
473.303943
20
0.579116
30
0.0
0
VERTEX
100
AcDbVertex
100
AcDb2dVertex
8
Layer01
10
473.836936
20
0.567502
30
0.0
0
VERTEX
100
AcDbVertex
100
AcDb2dVertex
8
Layer01
10
474.369929
20
0.555867
30
0.0
0
VERTEX
100
AcDbVertex
100
AcDb2dVertex
8
Layer01
10
474.902986
20
0.544075
30
0.0
0
VERTEX
100
AcDbVertex
100
AcDb2dVertex
8
Layer01
10
475.435979
20
0.532285
30
0.0
0
VERTEX
100
AcDbVertex
100
AcDb2dVertex
8
Layer01
10
475.968972
20
0.520514
30
0.0
0
VERTEX
100
AcDbVertex
100
AcDb2dVertex
8
Layer01
10
476.501965
20
0.508782
30
0.0
0
VERTEX
100
AcDbVertex
100
AcDb2dVertex
8
Layer01
10
477.034958
20
0.497111
30
0.0
0
VERTEX
100
AcDbVertex
100
AcDb2dVertex
8
Layer01
10
477.567951
20
0.485522
30
0.0
0
VERTEX
100
AcDbVertex
100
AcDb2dVertex
8
Layer01
10
478.100944
20
0.47404
30
0.0
0
VERTEX
100
AcDbVertex
100
AcDb2dVertex
8
Layer01
10
478.633937
20
0.462688
30
0.0
0
VERTEX
100
AcDbVertex
100
AcDb2dVertex
8
Layer01
10
479.166931
20
0.451491
30
0.0
0
VERTEX
100
AcDbVertex
100
AcDb2dVertex
8
Layer01
10
479.699924
20
0.440473
30
0.0
0
VERTEX
100
AcDbVertex
100
AcDb2dVertex
8
Layer01
10
480.23298
20
0.429651
30
0.0
0
VERTEX
100
AcDbVertex
100
AcDb2dVertex
8
Layer01
10
480.765974
20
0.419059
30
0.0
0
VERTEX
100
AcDbVertex
100
AcDb2dVertex
8
Layer01
10
481.298967
20
0.408721
30
0.0
0
VERTEX
100
AcDbVertex
100
AcDb2dVertex
8
Layer01
10
481.83196
20
0.398659
30
0.0
0
VERTEX
100
AcDbVertex
100
AcDb2dVertex
8
Layer01
10
482.364953
20
0.388897
30
0.0
0
VERTEX
100
AcDbVertex
100
AcDb2dVertex
8
Layer01
10
482.897946
20
0.379457
30
0.0
0
VERTEX
100
AcDbVertex
100
AcDb2dVertex
8
Layer01
10
483.430939
20
0.370357
30
0.0
0
VERTEX
100
AcDbVertex
100
AcDb2dVertex
8
Layer01
10
483.963932
20
0.361617
30
0.0
0
VERTEX
100
AcDbVertex
100
AcDb2dVertex
8
Layer01
10
484.496926
20
0.353253
30
0.0
0
VERTEX
100
AcDbVertex
100
AcDb2dVertex
8
Layer01
10
485.029919
20
0.345279
30
0.0
0
VERTEX
100
AcDbVertex
100
AcDb2dVertex
8
Layer01
10
485.563007
20
0.337928
30
0.0
0
VERTEX
100
AcDbVertex
100
AcDb2dVertex
8
Layer01
10
486.096
20
0.330973
30
0.0
0
VERTEX
100
AcDbVertex
100
AcDb2dVertex
8
Layer01
10
486.628993
20
0.324402
30
0.0
0
VERTEX
100
AcDbVertex
100
AcDb2dVertex
8
Layer01
10
487.161987
20
0.318203
30
0.0
0
VERTEX
100
AcDbVertex
100
AcDb2dVertex
8
Layer01
10
487.69498
20
0.312362
30
0.0
0
VERTEX
100
AcDbVertex
100
AcDb2dVertex
8
Layer01
10
488.227973
20
0.306866
30
0.0
0
VERTEX
100
AcDbVertex
100
AcDb2dVertex
8
Layer01
10
488.760966
20
0.3017
30
0.0
0
VERTEX
100
AcDbVertex
100
AcDb2dVertex
8
Layer01
10
489.293959
20
0.296849
30
0.0
0
VERTEX
100
AcDbVertex
100
AcDb2dVertex
8
Layer01
10
489.826952
20
0.292298
30
0.0
0
VERTEX
100
AcDbVertex
100
AcDb2dVertex
8
Layer01
10
490.359945
20
0.288034
30
0.0
0
VERTEX
100
AcDbVertex
100
AcDb2dVertex
8
Layer01
10
490.893002
20
0.283848
30
0.0
0
VERTEX
100
AcDbVertex
100
AcDb2dVertex
8
Layer01
10
491.425995
20
0.279942
30
0.0
0
VERTEX
100
AcDbVertex
100
AcDb2dVertex
8
Layer01
10
491.958988
20
0.276318
30
0.0
0
VERTEX
100
AcDbVertex
100
AcDb2dVertex
8
Layer01
10
492.491981
20
0.272985
30
0.0
0
VERTEX
100
AcDbVertex
100
AcDb2dVertex
8
Layer01
10
493.024975
20
0.269949
30
0.0
0
VERTEX
100
AcDbVertex
100
AcDb2dVertex
8
Layer01
10
493.557968
20
0.26722
30
0.0
0
VERTEX
100
AcDbVertex
100
AcDb2dVertex
8
Layer01
10
494.090961
20
0.264807
30
0.0
0
VERTEX
100
AcDbVertex
100
AcDb2dVertex
8
Layer01
10
494.623954
20
0.26272
30
0.0
0
VERTEX
100
AcDbVertex
100
AcDb2dVertex
8
Layer01
10
495.156947
20
0.260971
30
0.0
0
VERTEX
100
AcDbVertex
100
AcDb2dVertex
8
Layer01
10
495.68994
20
0.259571
30
0.0
0
VERTEX
100
AcDbVertex
100
AcDb2dVertex
8
Layer01
10
496.222997
20
0.258585
30
0.0
0
VERTEX
100
AcDbVertex
100
AcDb2dVertex
8
Layer01
10
496.75599
20
0.257966
30
0.0
0
VERTEX
100
AcDbVertex
100
AcDb2dVertex
8
Layer01
10
497.288983
20
0.257723
30
0.0
0
VERTEX
100
AcDbVertex
100
AcDb2dVertex
8
Layer01
10
497.821976
20
0.257863
30
0.0
0
VERTEX
100
AcDbVertex
100
AcDb2dVertex
8
Layer01
10
498.35497
20
0.258394
30
0.0
0
VERTEX
100
AcDbVertex
100
AcDb2dVertex
8
Layer01
10
498.887963
20
0.259323
30
0.0
0
VERTEX
100
AcDbVertex
100
AcDb2dVertex
8
Layer01
10
499.420956
20
0.26066
30
0.0
0
VERTEX
100
AcDbVertex
100
AcDb2dVertex
8
Layer01
10
499.953949
20
0.262412
30
0.0
0
VERTEX
100
AcDbVertex
100
AcDb2dVertex
8
Layer01
10
500.486942
20
0.264586
30
0.0
0
VERTEX
100
AcDbVertex
100
AcDb2dVertex
8
Layer01
10
501.019935
20
0.267193
30
0.0
0
VERTEX
100
AcDbVertex
100
AcDb2dVertex
8
Layer01
10
501.552992
20
0.270236
30
0.0
0
VERTEX
100
AcDbVertex
100
AcDb2dVertex
8
Layer01
10
502.085985
20
0.273729
30
0.0
0
VERTEX
100
AcDbVertex
100
AcDb2dVertex
8
Layer01
10
502.618978
20
0.277678
30
0.0
0
VERTEX
100
AcDbVertex
100
AcDb2dVertex
8
Layer01
10
503.151971
20
0.282094
30
0.0
0
VERTEX
100
AcDbVertex
100
AcDb2dVertex
8
Layer01
10
503.684964
20
0.286985
30
0.0
0
VERTEX
100
AcDbVertex
100
AcDb2dVertex
8
Layer01
10
504.217958
20
0.29236
30
0.0
0
VERTEX
100
AcDbVertex
100
AcDb2dVertex
8
Layer01
10
504.750951
20
0.298229
30
0.0
0
VERTEX
100
AcDbVertex
100
AcDb2dVertex
8
Layer01
10
505.283944
20
0.304601
30
0.0
0
VERTEX
100
AcDbVertex
100
AcDb2dVertex
8
Layer01
10
505.816937
20
0.311486
30
0.0
0
VERTEX
100
AcDbVertex
100
AcDb2dVertex
8
Layer01
10
506.34993
20
0.318893
30
0.0
0
VERTEX
100
AcDbVertex
100
AcDb2dVertex
8
Layer01
10
506.882987
20
0.326834
30
0.0
0
VERTEX
100
AcDbVertex
100
AcDb2dVertex
8
Layer01
10
507.41598
20
0.335316
30
0.0
0
VERTEX
100
AcDbVertex
100
AcDb2dVertex
8
Layer01
10
507.948973
20
0.344348
30
0.0
0
VERTEX
100
AcDbVertex
100
AcDb2dVertex
8
Layer01
10
508.481966
20
0.353942
30
0.0
0
VERTEX
100
AcDbVertex
100
AcDb2dVertex
8
Layer01
10
509.014959
20
0.364106
30
0.0
0
VERTEX
100
AcDbVertex
100
AcDb2dVertex
8
Layer01
10
509.547952
20
0.374851
30
0.0
0
VERTEX
100
AcDbVertex
100
AcDb2dVertex
8
Layer01
10
510.080946
20
0.386186
30
0.0
0
VERTEX
100
AcDbVertex
100
AcDb2dVertex
8
Layer01
10
510.613939
20
0.398123
30
0.0
0
VERTEX
100
AcDbVertex
100
AcDb2dVertex
8
Layer01
10
511.146932
20
0.41067
30
0.0
0
VERTEX
100
AcDbVertex
100
AcDb2dVertex
8
Layer01
10
511.679925
20
0.42384
30
0.0
0
VERTEX
100
AcDbVertex
100
AcDb2dVertex
8
Layer01
10
512.212982
20
0.437642
30
0.0
0
VERTEX
100
AcDbVertex
100
AcDb2dVertex
8
Layer01
10
512.745975
20
0.452086
30
0.0
0
VERTEX
100
AcDbVertex
100
AcDb2dVertex
8
Layer01
10
513.278968
20
0.467183
30
0.0
0
VERTEX
100
AcDbVertex
100
AcDb2dVertex
8
Layer01
10
513.811961
20
0.482946
30
0.0
0
VERTEX
100
AcDbVertex
100
AcDb2dVertex
8
Layer01
10
514.344954
20
0.499384
30
0.0
0
VERTEX
100
AcDbVertex
100
AcDb2dVertex
8
Layer01
10
514.877947
20
0.516509
30
0.0
0
VERTEX
100
AcDbVertex
100
AcDb2dVertex
8
Layer01
10
515.410941
20
0.534332
30
0.0
0
VERTEX
100
AcDbVertex
100
AcDb2dVertex
8
Layer01
10
515.943934
20
0.552865
30
0.0
0
VERTEX
100
AcDbVertex
100
AcDb2dVertex
8
Layer01
10
516.476927
20
0.572119
30
0.0
0
VERTEX
100
AcDbVertex
100
AcDb2dVertex
8
Layer01
10
517.00992
20
0.592107
30
0.0
0
VERTEX
100
AcDbVertex
100
AcDb2dVertex
8
Layer01
10
522.873003
20
0.872365
30
0.0
0
VERTEX
100
AcDbVertex
100
AcDb2dVertex
8
Layer01
10
523.405996
20
0.911499
30
0.0
0
VERTEX
100
AcDbVertex
100
AcDb2dVertex
8
Layer01
10
523.93899
20
0.951705
30
0.0
0
VERTEX
100
AcDbVertex
100
AcDb2dVertex
8
Layer01
10
524.471983
20
0.992144
30
0.0
0
VERTEX
100
AcDbVertex
100
AcDb2dVertex
8
Layer01
10
525.004976
20
1.031775
30
0.0
0
VERTEX
100
AcDbVertex
100
AcDb2dVertex
8
Layer01
10
525.537969
20
1.069331
30
0.0
0
VERTEX
100
AcDbVertex
100
AcDb2dVertex
8
Layer01
10
526.070962
20
1.103306
30
0.0
0
VERTEX
100
AcDbVertex
100
AcDb2dVertex
8
Layer01
10
526.603955
20
1.131938
30
0.0
0
VERTEX
100
AcDbVertex
100
AcDb2dVertex
8
Layer01
10
527.136948
20
1.153198
30
0.0
0
VERTEX
100
AcDbVertex
100
AcDb2dVertex
8
Layer01
10
527.669942
20
1.164764
30
0.0
0
VERTEX
100
AcDbVertex
100
AcDb2dVertex
8
Layer01
10
528.202998
20
1.164016
30
0.0
0
VERTEX
100
AcDbVertex
100
AcDb2dVertex
8
Layer01
10
528.735991
20
1.148012
30
0.0
0
VERTEX
100
AcDbVertex
100
AcDb2dVertex
8
Layer01
10
529.268984
20
1.113476
30
0.0
0
VERTEX
100
AcDbVertex
100
AcDb2dVertex
8
Layer01
10
529.801978
20
1.056784
30
0.0
0
VERTEX
100
AcDbVertex
100
AcDb2dVertex
8
Layer01
10
530.334971
20
0.973942
30
0.0
0
VERTEX
100
AcDbVertex
100
AcDb2dVertex
8
Layer01
10
530.867964
20
0.860574
30
0.0
0
VERTEX
100
AcDbVertex
100
AcDb2dVertex
8
Layer01
10
531.400957
20
0.711905
30
0.0
0
VERTEX
100
AcDbVertex
100
AcDb2dVertex
8
Layer01
10
531.93395
20
0.522747
30
0.0
0
VERTEX
100
AcDbVertex
100
AcDb2dVertex
8
Layer01
10
532.466943
20
0.28748
30
0.0
0
VERTEX
100
AcDbVertex
100
AcDb2dVertex
8
Layer01
10
532.999936
20
0.000038
30
0.0
0
VERTEX
100
AcDbVertex
100
AcDb2dVertex
8
Layer01
10
533.0
20
0.0
30
0.0
0
SEQEND
0
POLYLINE
5
 502
100
AcDbEntity
8
AXIS
66
 1
100
AcDb2dPolyline
70
 0
0
VERTEX
100
AcDbVertex
100
AcDb2dVertex
8
AXIS
10
0.0
20
0.0
30
0.0
0
VERTEX
100
AcDbVertex
100
AcDb2dVertex
8
AXIS
10
533.0
20
0.0
30
0.0
0
SEQEND
0
POLYLINE
5
 503
100
AcDbEntity
8
COFFR
66
 1
100
AcDb2dPolyline
70
 0
0
VERTEX
100
AcDbVertex
100
AcDb2dVertex
8
COFFR
10
19.999984
20
55.582278
30
0.0
0
VERTEX
100
AcDbVertex
100
AcDb2dVertex
8
COFFR
10
19.999984
20
6.254434
30
0.0
0
SEQEND
0
POLYLINE
5
 503
100
AcDbEntity
8
COFFR
66
 1
100
AcDb2dPolyline
70
 0
0
VERTEX
100
AcDbVertex
100
AcDb2dVertex
8
COFFR
10
533.0
20
0.0
30
0.0
0
VERTEX
100
AcDbVertex
100
AcDb2dVertex
8
COFFR
10
533.0
20
0.0
30
0.0
0
SEQEND
0
POLYLINE
5
 503
100
AcDbEntity
8
COFFR
66
 1
100
AcDb2dPolyline
70
 0
0
VERTEX
100
AcDbVertex
100
AcDb2dVertex
8
COFFR
10
526.459233
20
4.834032
30
0.0
0
VERTEX
100
AcDbVertex
100
AcDb2dVertex
8
COFFR
10
525.070281
20
5.034715
30
0.0
0
VERTEX
100
AcDbVertex
100
AcDb2dVertex
8
COFFR
10
523.715217
20
5.166774
30
0.0
0
VERTEX
100
AcDbVertex
100
AcDb2dVertex
8
COFFR
10
522.385304
20
5.307298
30
0.0
0
VERTEX
100
AcDbVertex
100
AcDb2dVertex
8
COFFR
10
521.069388
20
5.499513
30
0.0
0
VERTEX
100
AcDbVertex
100
AcDb2dVertex
8
COFFR
10
519.756757
20
5.753537
30
0.0
0
VERTEX
100
AcDbVertex
100
AcDb2dVertex
8
COFFR
10
518.443788
20
6.068275
30
0.0
0
VERTEX
100
AcDbVertex
100
AcDb2dVertex
8
COFFR
10
517.123388
20
6.420392
30
0.0
0
VERTEX
100
AcDbVertex
100
AcDb2dVertex
8
COFFR
10
515.778336
20
6.732682
30
0.0
0
VERTEX
100
AcDbVertex
100
AcDb2dVertex
8
COFFR
10
514.449674
20
7.057459
30
0.0
0
VERTEX
100
AcDbVertex
100
AcDb2dVertex
8
COFFR
10
513.121126
20
7.394509
30
0.0
0
VERTEX
100
AcDbVertex
100
AcDb2dVertex
8
COFFR
10
511.792054
20
7.742181
30
0.0
0
VERTEX
100
AcDbVertex
100
AcDb2dVertex
8
COFFR
10
510.463082
20
8.100809
30
0.0
0
VERTEX
100
AcDbVertex
100
AcDb2dVertex
8
COFFR
10
509.133628
20
8.468873
30
0.0
0
VERTEX
100
AcDbVertex
100
AcDb2dVertex
8
COFFR
10
507.804243
20
8.846612
30
0.0
0
VERTEX
100
AcDbVertex
100
AcDb2dVertex
8
COFFR
10
506.474431
20
9.232676
30
0.0
0
VERTEX
100
AcDbVertex
100
AcDb2dVertex
8
COFFR
10
505.144677
20
9.627268
30
0.0
0
VERTEX
100
AcDbVertex
100
AcDb2dVertex
8
COFFR
10
503.814526
20
10.029137
30
0.0
0
VERTEX
100
AcDbVertex
100
AcDb2dVertex
8
COFFR
10
502.484412
20
10.438414
30
0.0
0
VERTEX
100
AcDbVertex
100
AcDb2dVertex
8
COFFR
10
501.153945
20
10.85399
30
0.0
0
VERTEX
100
AcDbVertex
100
AcDb2dVertex
8
COFFR
10
499.823508
20
11.27597
30
0.0
0
VERTEX
100
AcDbVertex
100
AcDb2dVertex
8
COFFR
10
498.492748
20
11.703338
30
0.0
0
VERTEX
100
AcDbVertex
100
AcDb2dVertex
8
COFFR
10
497.162
20
12.136147
30
0.0
0
VERTEX
100
AcDbVertex
100
AcDb2dVertex
8
COFFR
10
495.830968
20
12.573501
30
0.0
0
VERTEX
100
AcDbVertex
100
AcDb2dVertex
8
COFFR
10
494.499947
20
13.015445
30
0.0
0
VERTEX
100
AcDbVertex
100
AcDb2dVertex
8
COFFR
10
493.168663
20
13.461152
30
0.0
0
VERTEX
100
AcDbVertex
100
AcDb2dVertex
8
COFFR
10
491.837372
20
13.910615
30
0.0
0
VERTEX
100
AcDbVertex
100
AcDb2dVertex
8
COFFR
10
490.505856
20
14.36312
30
0.0
0
VERTEX
100
AcDbVertex
100
AcDb2dVertex
8
COFFR
10
489.174331
20
14.818654
30
0.0
0
VERTEX
100
AcDbVertex
100
AcDb2dVertex
8
COFFR
10
487.842602
20
15.276573
30
0.0
0
VERTEX
100
AcDbVertex
100
AcDb2dVertex
8
COFFR
10
486.510855
20
15.736827
30
0.0
0
VERTEX
100
AcDbVertex
100
AcDb2dVertex
8
COFFR
10
485.178933
20
16.198868
30
0.0
0
VERTEX
100
AcDbVertex
100
AcDb2dVertex
8
COFFR
10
483.846996
20
16.662654
30
0.0
0
VERTEX
100
AcDbVertex
100
AcDb2dVertex
8
COFFR
10
482.514899
20
17.127684
30
0.0
0
VERTEX
100
AcDbVertex
100
AcDb2dVertex
8
COFFR
10
481.182774
20
17.593876
30
0.0
0
VERTEX
100
AcDbVertex
100
AcDb2dVertex
8
COFFR
10
479.850518
20
18.06082
30
0.0
0
VERTEX
100
AcDbVertex
100
AcDb2dVertex
8
COFFR
10
478.518239
20
18.528449
30
0.0
0
VERTEX
100
AcDbVertex
100
AcDb2dVertex
8
COFFR
10
477.185843
20
18.996396
30
0.0
0
VERTEX
100
AcDbVertex
100
AcDb2dVertex
8
COFFR
10
475.853402
20
19.464524
30
0.0
0
VERTEX
100
AcDbVertex
100
AcDb2dVertex
8
COFFR
10
474.520881
20
19.932584
30
0.0
0
VERTEX
100
AcDbVertex
100
AcDb2dVertex
8
COFFR
10
473.188316
20
20.400439
30
0.0
0
VERTEX
100
AcDbVertex
100
AcDb2dVertex
8
COFFR
10
471.855684
20
20.867881
30
0.0
0
VERTEX
100
AcDbVertex
100
AcDb2dVertex
8
COFFR
10
470.523004
20
21.33476
30
0.0
0
VERTEX
100
AcDbVertex
100
AcDb2dVertex
8
COFFR
10
469.190276
20
21.80093
30
0.0
0
VERTEX
100
AcDbVertex
100
AcDb2dVertex
8
COFFR
10
467.85751
20
22.266273
30
0.0
0
VERTEX
100
AcDbVertex
100
AcDb2dVertex
8
COFFR
10
466.524699
20
22.730647
30
0.0
0
VERTEX
100
AcDbVertex
100
AcDb2dVertex
8
COFFR
10
465.19184
20
23.193904
30
0.0
0
VERTEX
100
AcDbVertex
100
AcDb2dVertex
8
COFFR
10
463.858957
20
23.655969
30
0.0
0
VERTEX
100
AcDbVertex
100
AcDb2dVertex
8
COFFR
10
462.526033
20
24.116716
30
0.0
0
VERTEX
100
AcDbVertex
100
AcDb2dVertex
8
COFFR
10
461.19309
20
24.576089
30
0.0
0
VERTEX
100
AcDbVertex
100
AcDb2dVertex
8
COFFR
10
459.860105
20
25.033955
30
0.0
0
VERTEX
100
AcDbVertex
100
AcDb2dVertex
8
COFFR
10
458.527117
20
25.490303
30
0.0
0
VERTEX
100
AcDbVertex
100
AcDb2dVertex
8
COFFR
10
457.194096
20
25.945035
30
0.0
0
VERTEX
100
AcDbVertex
100
AcDb2dVertex
8
COFFR
10
455.861072
20
26.398138
30
0.0
0
VERTEX
100
AcDbVertex
100
AcDb2dVertex
8
COFFR
10
454.528011
20
26.849497
30
0.0
0
VERTEX
100
AcDbVertex
100
AcDb2dVertex
8
COFFR
10
453.194959
20
27.299145
30
0.0
0
VERTEX
100
AcDbVertex
100
AcDb2dVertex
8
COFFR
10
451.861882
20
27.747
30
0.0
0
VERTEX
100
AcDbVertex
100
AcDb2dVertex
8
COFFR
10
450.528814
20
28.193092
30
0.0
0
VERTEX
100
AcDbVertex
100
AcDb2dVertex
8
COFFR
10
449.195718
20
28.637332
30
0.0
0
VERTEX
100
AcDbVertex
100
AcDb2dVertex
8
COFFR
10
447.862642
20
29.079786
30
0.0
0
VERTEX
100
AcDbVertex
100
AcDb2dVertex
8
COFFR
10
446.52955
20
29.5204
30
0.0
0
VERTEX
100
AcDbVertex
100
AcDb2dVertex
8
COFFR
10
445.196477
20
29.959238
30
0.0
0
VERTEX
100
AcDbVertex
100
AcDb2dVertex
8
COFFR
10
443.863377
20
30.396211
30
0.0
0
VERTEX
100
AcDbVertex
100
AcDb2dVertex
8
COFFR
10
442.530315
20
30.831443
30
0.0
0
VERTEX
100
AcDbVertex
100
AcDb2dVertex
8
COFFR
10
441.197235
20
31.264872
30
0.0
0
VERTEX
100
AcDbVertex
100
AcDb2dVertex
8
COFFR
10
439.864187
20
31.696603
30
0.0
0
VERTEX
100
AcDbVertex
100
AcDb2dVertex
8
COFFR
10
438.531119
20
32.126569
30
0.0
0
VERTEX
100
AcDbVertex
100
AcDb2dVertex
8
COFFR
10
437.198092
20
32.5549
30
0.0
0
VERTEX
100
AcDbVertex
100
AcDb2dVertex
8
COFFR
10
435.865223
20
32.982096
30
0.0
0
VERTEX
100
AcDbVertex
100
AcDb2dVertex
8
COFFR
10
434.532144
20
33.407482
30
0.0
0
VERTEX
100
AcDbVertex
100
AcDb2dVertex
8
COFFR
10
433.198987
20
33.830826
30
0.0
0
VERTEX
100
AcDbVertex
100
AcDb2dVertex
8
COFFR
10
431.865865
20
34.252242
30
0.0
0
VERTEX
100
AcDbVertex
100
AcDb2dVertex
8
COFFR
10
430.532104
20
34.669715
30
0.0
0
VERTEX
100
AcDbVertex
100
AcDb2dVertex
8
COFFR
10
429.199507
20
35.086938
30
0.0
0
VERTEX
100
AcDbVertex
100
AcDb2dVertex
8
COFFR
10
427.867442
20
35.505536
30
0.0
0
VERTEX
100
AcDbVertex
100
AcDb2dVertex
8
COFFR
10
426.535766
20
35.926709
30
0.0
0
VERTEX
100
AcDbVertex
100
AcDb2dVertex
8
COFFR
10
425.205564
20
36.355084
30
0.0
0
VERTEX
100
AcDbVertex
100
AcDb2dVertex
8
COFFR
10
423.873914
20
36.786032
30
0.0
0
VERTEX
100
AcDbVertex
100
AcDb2dVertex
8
COFFR
10
422.541907
20
37.218494
30
0.0
0
VERTEX
100
AcDbVertex
100
AcDb2dVertex
8
COFFR
10
421.209384
20
37.650861
30
0.0
0
VERTEX
100
AcDbVertex
100
AcDb2dVertex
8
COFFR
10
419.875743
20
38.079635
30
0.0
0
VERTEX
100
AcDbVertex
100
AcDb2dVertex
8
COFFR
10
418.542729
20
38.506842
30
0.0
0
VERTEX
100
AcDbVertex
100
AcDb2dVertex
8
COFFR
10
417.209707
20
38.932428
30
0.0
0
VERTEX
100
AcDbVertex
100
AcDb2dVertex
8
COFFR
10
415.876753
20
39.356606
30
0.0
0
VERTEX
100
AcDbVertex
100
AcDb2dVertex
8
COFFR
10
414.544029
20
39.780101
30
0.0
0
VERTEX
100
AcDbVertex
100
AcDb2dVertex
8
COFFR
10
413.211144
20
40.202391
30
0.0
0
VERTEX
100
AcDbVertex
100
AcDb2dVertex
8
COFFR
10
411.878236
20
40.623417
30
0.0
0
VERTEX
100
AcDbVertex
100
AcDb2dVertex
8
COFFR
10
410.545345
20
41.043229
30
0.0
0
VERTEX
100
AcDbVertex
100
AcDb2dVertex
8
COFFR
10
409.212437
20
41.461772
30
0.0
0
VERTEX
100
AcDbVertex
100
AcDb2dVertex
8
COFFR
10
407.879537
20
41.879077
30
0.0
0
VERTEX
100
AcDbVertex
100
AcDb2dVertex
8
COFFR
10
406.546614
20
42.295066
30
0.0
0
VERTEX
100
AcDbVertex
100
AcDb2dVertex
8
COFFR
10
405.213706
20
42.709792
30
0.0
0
VERTEX
100
AcDbVertex
100
AcDb2dVertex
8
COFFR
10
403.880782
20
43.123199
30
0.0
0
VERTEX
100
AcDbVertex
100
AcDb2dVertex
8
COFFR
10
402.547867
20
43.535317
30
0.0
0
VERTEX
100
AcDbVertex
100
AcDb2dVertex
8
COFFR
10
401.214927
20
43.946072
30
0.0
0
VERTEX
100
AcDbVertex
100
AcDb2dVertex
8
COFFR
10
399.882004
20
44.355512
30
0.0
0
VERTEX
100
AcDbVertex
100
AcDb2dVertex
8
COFFR
10
398.549063
20
44.763582
30
0.0
0
VERTEX
100
AcDbVertex
100
AcDb2dVertex
8
COFFR
10
397.216133
20
45.170319
30
0.0
0
VERTEX
100
AcDbVertex
100
AcDb2dVertex
8
COFFR
10
395.883182
20
45.575656
30
0.0
0
VERTEX
100
AcDbVertex
100
AcDb2dVertex
8
COFFR
10
394.550248
20
45.979645
30
0.0
0
VERTEX
100
AcDbVertex
100
AcDb2dVertex
8
COFFR
10
393.2173
20
46.382245
30
0.0
0
VERTEX
100
AcDbVertex
100
AcDb2dVertex
8
COFFR
10
391.884361
20
46.78348
30
0.0
0
VERTEX
100
AcDbVertex
100
AcDb2dVertex
8
COFFR
10
390.5514
20
47.183286
30
0.0
0
VERTEX
100
AcDbVertex
100
AcDb2dVertex
8
COFFR
10
389.218455
20
47.581711
30
0.0
0
VERTEX
100
AcDbVertex
100
AcDb2dVertex
8
COFFR
10
387.885495
20
47.978709
30
0.0
0
VERTEX
100
AcDbVertex
100
AcDb2dVertex
8
COFFR
10
386.552545
20
48.374308
30
0.0
0
VERTEX
100
AcDbVertex
100
AcDb2dVertex
8
COFFR
10
385.219575
20
48.768449
30
0.0
0
VERTEX
100
AcDbVertex
100
AcDb2dVertex
8
COFFR
10
383.88662
20
49.161177
30
0.0
0
VERTEX
100
AcDbVertex
100
AcDb2dVertex
8
COFFR
10
382.553661
20
49.552482
30
0.0
0
VERTEX
100
AcDbVertex
100
AcDb2dVertex
8
COFFR
10
381.220698
20
49.942349
30
0.0
0
VERTEX
100
AcDbVertex
100
AcDb2dVertex
8
COFFR
10
379.887714
20
50.330713
30
0.0
0
VERTEX
100
AcDbVertex
100
AcDb2dVertex
8
COFFR
10
378.554743
20
50.717617
30
0.0
0
VERTEX
100
AcDbVertex
100
AcDb2dVertex
8
COFFR
10
377.221728
20
51.102922
30
0.0
0
VERTEX
100
AcDbVertex
100
AcDb2dVertex
8
COFFR
10
375.888784
20
51.486849
30
0.0
0
VERTEX
100
AcDbVertex
100
AcDb2dVertex
8
COFFR
10
374.555842
20
51.869405
30
0.0
0
VERTEX
100
AcDbVertex
100
AcDb2dVertex
8
COFFR
10
373.222943
20
52.250725
30
0.0
0
VERTEX
100
AcDbVertex
100
AcDb2dVertex
8
COFFR
10
371.8901
20
52.630985
30
0.0
0
VERTEX
100
AcDbVertex
100
AcDb2dVertex
8
COFFR
10
370.557197
20
53.00999
30
0.0
0
VERTEX
100
AcDbVertex
100
AcDb2dVertex
8
COFFR
10
369.224247
20
53.387597
30
0.0
0
VERTEX
100
AcDbVertex
100
AcDb2dVertex
8
COFFR
10
367.891292
20
53.763791
30
0.0
0
VERTEX
100
AcDbVertex
100
AcDb2dVertex
8
COFFR
10
366.558254
20
54.138313
30
0.0
0
VERTEX
100
AcDbVertex
100
AcDb2dVertex
8
COFFR
10
365.225267
20
54.511327
30
0.0
0
VERTEX
100
AcDbVertex
100
AcDb2dVertex
8
COFFR
10
363.892253
20
54.882743
30
0.0
0
VERTEX
100
AcDbVertex
100
AcDb2dVertex
8
COFFR
10
362.559264
20
55.252644
30
0.0
0
VERTEX
100
AcDbVertex
100
AcDb2dVertex
8
COFFR
10
361.226267
20
55.621
30
0.0
0
VERTEX
100
AcDbVertex
100
AcDb2dVertex
8
COFFR
10
359.893277
20
55.987837
30
0.0
0
VERTEX
100
AcDbVertex
100
AcDb2dVertex
8
COFFR
10
358.56026
20
56.35307
30
0.0
0
VERTEX
100
AcDbVertex
100
AcDb2dVertex
8
COFFR
10
357.227265
20
56.716768
30
0.0
0
VERTEX
100
AcDbVertex
100
AcDb2dVertex
8
COFFR
10
355.89425
20
57.078867
30
0.0
0
VERTEX
100
AcDbVertex
100
AcDb2dVertex
8
COFFR
10
354.56125
20
57.439415
30
0.0
0
VERTEX
100
AcDbVertex
100
AcDb2dVertex
8
COFFR
10
353.228225
20
57.798331
30
0.0
0
VERTEX
100
AcDbVertex
100
AcDb2dVertex
8
COFFR
10
351.89522
20
58.155681
30
0.0
0
VERTEX
100
AcDbVertex
100
AcDb2dVertex
8
COFFR
10
350.562195
20
58.511401
30
0.0
0
VERTEX
100
AcDbVertex
100
AcDb2dVertex
8
COFFR
10
349.229185
20
58.86554
30
0.0
0
VERTEX
100
AcDbVertex
100
AcDb2dVertex
8
COFFR
10
347.89615
20
59.218019
30
0.0
0
VERTEX
100
AcDbVertex
100
AcDb2dVertex
8
COFFR
10
346.563136
20
59.568904
30
0.0
0
VERTEX
100
AcDbVertex
100
AcDb2dVertex
8
COFFR
10
345.230103
20
59.918134
30
0.0
0
VERTEX
100
AcDbVertex
100
AcDb2dVertex
8
COFFR
10
343.897088
20
60.265765
30
0.0
0
VERTEX
100
AcDbVertex
100
AcDb2dVertex
8
COFFR
10
342.56404
20
60.611694
30
0.0
0
VERTEX
100
AcDbVertex
100
AcDb2dVertex
8
COFFR
10
341.231022
20
60.956018
30
0.0
0
VERTEX
100
AcDbVertex
100
AcDb2dVertex
8
COFFR
10
339.897975
20
61.298645
30
0.0
0
VERTEX
100
AcDbVertex
100
AcDb2dVertex
8
COFFR
10
338.564953
20
61.639652
30
0.0
0
VERTEX
100
AcDbVertex
100
AcDb2dVertex
8
COFFR
10
337.231897
20
61.978933
30
0.0
0
VERTEX
100
AcDbVertex
100
AcDb2dVertex
8
COFFR
10
335.89887
20
62.31658
30
0.0
0
VERTEX
100
AcDbVertex
100
AcDb2dVertex
8
COFFR
10
334.565815
20
62.652502
30
0.0
0
VERTEX
100
AcDbVertex
100
AcDb2dVertex
8
COFFR
10
333.232784
20
62.986779
30
0.0
0
VERTEX
100
AcDbVertex
100
AcDb2dVertex
8
COFFR
10
331.89972
20
63.319305
30
0.0
0
VERTEX
100
AcDbVertex
100
AcDb2dVertex
8
COFFR
10
330.566686
20
63.650173
30
0.0
0
VERTEX
100
AcDbVertex
100
AcDb2dVertex
8
COFFR
10
329.233616
20
63.979274
30
0.0
0
VERTEX
100
AcDbVertex
100
AcDb2dVertex
8
COFFR
10
327.900581
20
64.306715
30
0.0
0
VERTEX
100
AcDbVertex
100
AcDb2dVertex
8
COFFR
10
326.567516
20
64.632403
30
0.0
0
VERTEX
100
AcDbVertex
100
AcDb2dVertex
8
COFFR
10
325.234479
20
64.956424
30
0.0
0
VERTEX
100
AcDbVertex
100
AcDb2dVertex
8
COFFR
10
323.901444
20
65.278788
30
0.0
0
VERTEX
100
AcDbVertex
100
AcDb2dVertex
8
COFFR
10
322.568379
20
65.599397
30
0.0
0
VERTEX
100
AcDbVertex
100
AcDb2dVertex
8
COFFR
10
321.235256
20
65.918072
30
0.0
0
VERTEX
100
AcDbVertex
100
AcDb2dVertex
8
COFFR
10
319.902145
20
66.23485
30
0.0
0
VERTEX
100
AcDbVertex
100
AcDb2dVertex
8
COFFR
10
318.568936
20
66.549426
30
0.0
0
VERTEX
100
AcDbVertex
100
AcDb2dVertex
8
COFFR
10
317.235822
20
66.862099
30
0.0
0
VERTEX
100
AcDbVertex
100
AcDb2dVertex
8
COFFR
10
315.902694
20
67.172824
30
0.0
0
VERTEX
100
AcDbVertex
100
AcDb2dVertex
8
COFFR
10
314.56962
20
67.481771
30
0.0
0
VERTEX
100
AcDbVertex
100
AcDb2dVertex
8
COFFR
10
313.236576
20
67.789031
30
0.0
0
VERTEX
100
AcDbVertex
100
AcDb2dVertex
8
COFFR
10
311.903527
20
68.094587
30
0.0
0
VERTEX
100
AcDbVertex
100
AcDb2dVertex
8
COFFR
10
310.570442
20
68.398326
30
0.0
0
VERTEX
100
AcDbVertex
100
AcDb2dVertex
8
COFFR
10
309.23739
20
68.700356
30
0.0
0
VERTEX
100
AcDbVertex
100
AcDb2dVertex
8
COFFR
10
307.904295
20
69.000536
30
0.0
0
VERTEX
100
AcDbVertex
100
AcDb2dVertex
8
COFFR
10
306.571238
20
69.298989
30
0.0
0
VERTEX
100
AcDbVertex
100
AcDb2dVertex
8
COFFR
10
305.238143
20
69.595597
30
0.0
0
VERTEX
100
AcDbVertex
100
AcDb2dVertex
8
COFFR
10
303.905084
20
69.89047
30
0.0
0
VERTEX
100
AcDbVertex
100
AcDb2dVertex
8
COFFR
10
302.571991
20
70.183505
30
0.0
0
VERTEX
100
AcDbVertex
100
AcDb2dVertex
8
COFFR
10
301.238929
20
70.474797
30
0.0
0
VERTEX
100
AcDbVertex
100
AcDb2dVertex
8
COFFR
10
299.90583
20
70.76423
30
0.0
0
VERTEX
100
AcDbVertex
100
AcDb2dVertex
8
COFFR
10
298.572765
20
71.05191
30
0.0
0
VERTEX
100
AcDbVertex
100
AcDb2dVertex
8
COFFR
10
297.239667
20
71.337736
30
0.0
0
VERTEX
100
AcDbVertex
100
AcDb2dVertex
8
COFFR
10
295.906599
20
71.6218
30
0.0
0
VERTEX
100
AcDbVertex
100
AcDb2dVertex
8
COFFR
10
294.573495
20
71.90399
30
0.0
0
VERTEX
100
AcDbVertex
100
AcDb2dVertex
8
COFFR
10
293.240425
20
72.18441
30
0.0
0
VERTEX
100
AcDbVertex
100
AcDb2dVertex
8
COFFR
10
291.907322
20
72.46296
30
0.0
0
VERTEX
100
AcDbVertex
100
AcDb2dVertex
8
COFFR
10
290.574248
20
72.739731
30
0.0
0
VERTEX
100
AcDbVertex
100
AcDb2dVertex
8
COFFR
10
289.241139
20
73.014611
30
0.0
0
VERTEX
100
AcDbVertex
100
AcDb2dVertex
8
COFFR
10
287.908062
20
73.287702
30
0.0
0
VERTEX
100
AcDbVertex
100
AcDb2dVertex
8
COFFR
10
286.574953
20
73.558904
30
0.0
0
VERTEX
100
AcDbVertex
100
AcDb2dVertex
8
COFFR
10
285.241873
20
73.828306
30
0.0
0
VERTEX
100
AcDbVertex
100
AcDb2dVertex
8
COFFR
10
283.908756
20
74.095794
30
0.0
0
VERTEX
100
AcDbVertex
100
AcDb2dVertex
8
COFFR
10
282.575671
20
74.361467
30
0.0
0
VERTEX
100
AcDbVertex
100
AcDb2dVertex
8
COFFR
10
281.242554
20
74.625225
30
0.0
0
VERTEX
100
AcDbVertex
100
AcDb2dVertex
8
COFFR
10
279.909466
20
74.88716
30
0.0
0
VERTEX
100
AcDbVertex
100
AcDb2dVertex
8
COFFR
10
278.576335
20
75.147139
30
0.0
0
VERTEX
100
AcDbVertex
100
AcDb2dVertex
8
COFFR
10
277.243244
20
75.405285
30
0.0
0
VERTEX
100
AcDbVertex
100
AcDb2dVertex
8
COFFR
10
275.910146
20
75.661574
30
0.0
0
VERTEX
100
AcDbVertex
100
AcDb2dVertex
8
COFFR
10
274.577033
20
75.915963
30
0.0
0
VERTEX
100
AcDbVertex
100
AcDb2dVertex
8
COFFR
10
273.243862
20
76.168268
30
0.0
0
VERTEX
100
AcDbVertex
100
AcDb2dVertex
8
COFFR
10
271.910728
20
76.418608
30
0.0
0
VERTEX
100
AcDbVertex
100
AcDb2dVertex
8
COFFR
10
270.577425
20
76.666454
30
0.0
0
VERTEX
100
AcDbVertex
100
AcDb2dVertex
8
COFFR
10
269.244381
20
76.912618
30
0.0
0
VERTEX
100
AcDbVertex
100
AcDb2dVertex
8
COFFR
10
267.911395
20
77.157275
30
0.0
0
VERTEX
100
AcDbVertex
100
AcDb2dVertex
8
COFFR
10
266.578516
20
77.400761
30
0.0
0
VERTEX
100
AcDbVertex
100
AcDb2dVertex
8
COFFR
10
265.245884
20
77.643845
30
0.0
0
VERTEX
100
AcDbVertex
100
AcDb2dVertex
8
COFFR
10
263.912993
20
77.885708
30
0.0
0
VERTEX
100
AcDbVertex
100
AcDb2dVertex
8
COFFR
10
262.57998
20
78.125977
30
0.0
0
VERTEX
100
AcDbVertex
100
AcDb2dVertex
8
COFFR
10
261.246897
20
78.364436
30
0.0
0
VERTEX
100
AcDbVertex
100
AcDb2dVertex
8
COFFR
10
259.913541
20
78.600233
30
0.0
0
VERTEX
100
AcDbVertex
100
AcDb2dVertex
8
COFFR
10
258.580343
20
78.833868
30
0.0
0
VERTEX
100
AcDbVertex
100
AcDb2dVertex
8
COFFR
10
257.24709
20
79.065167
30
0.0
0
VERTEX
100
AcDbVertex
100
AcDb2dVertex
8
COFFR
10
255.913886
20
79.294285
30
0.0
0
VERTEX
100
AcDbVertex
100
AcDb2dVertex
8
COFFR
10
254.580677
20
79.521203
30
0.0
0
VERTEX
100
AcDbVertex
100
AcDb2dVertex
8
COFFR
10
253.247471
20
79.74593
30
0.0
0
VERTEX
100
AcDbVertex
100
AcDb2dVertex
8
COFFR
10
251.914204
20
79.968277
30
0.0
0
VERTEX
100
AcDbVertex
100
AcDb2dVertex
8
COFFR
10
250.580979
20
80.188378
30
0.0
0
VERTEX
100
AcDbVertex
100
AcDb2dVertex
8
COFFR
10
249.247697
20
80.406052
30
0.0
0
VERTEX
100
AcDbVertex
100
AcDb2dVertex
8
COFFR
10
247.914452
20
80.621415
30
0.0
0
VERTEX
100
AcDbVertex
100
AcDb2dVertex
8
COFFR
10
246.581141
20
80.834263
30
0.0
0
VERTEX
100
AcDbVertex
100
AcDb2dVertex
8
COFFR
10
245.247874
20
81.04473
30
0.0
0
VERTEX
100
AcDbVertex
100
AcDb2dVertex
8
COFFR
10
243.914541
20
81.252614
30
0.0
0
VERTEX
100
AcDbVertex
100
AcDb2dVertex
8
COFFR
10
242.581252
20
81.458051
30
0.0
0
VERTEX
100
AcDbVertex
100
AcDb2dVertex
8
COFFR
10
241.247896
20
81.660833
30
0.0
0
VERTEX
100
AcDbVertex
100
AcDb2dVertex
8
COFFR
10
239.914587
20
81.861107
30
0.0
0
VERTEX
100
AcDbVertex
100
AcDb2dVertex
8
COFFR
10
238.581213
20
82.05867
30
0.0
0
VERTEX
100
AcDbVertex
100
AcDb2dVertex
8
COFFR
10
237.247885
20
82.253664
30
0.0
0
VERTEX
100
AcDbVertex
100
AcDb2dVertex
8
COFFR
10
235.914484
20
82.445863
30
0.0
0
VERTEX
100
AcDbVertex
100
AcDb2dVertex
8
COFFR
10
234.581136
20
82.635432
30
0.0
0
VERTEX
100
AcDbVertex
100
AcDb2dVertex
8
COFFR
10
233.247716
20
82.822148
30
0.0
0
VERTEX
100
AcDbVertex
100
AcDb2dVertex
8
COFFR
10
231.914346
20
83.006168
30
0.0
0
VERTEX
100
AcDbVertex
100
AcDb2dVertex
8
COFFR
10
230.5809
20
83.187251
30
0.0
0
VERTEX
100
AcDbVertex
100
AcDb2dVertex
8
COFFR
10
229.247508
20
83.36557
30
0.0
0
VERTEX
100
AcDbVertex
100
AcDb2dVertex
8
COFFR
10
227.91404
20
83.540886
30
0.0
0
VERTEX
100
AcDbVertex
100
AcDb2dVertex
8
COFFR
10
226.580629
20
83.713376
30
0.0
0
VERTEX
100
AcDbVertex
100
AcDb2dVertex
8
COFFR
10
225.24714
20
83.882798
30
0.0
0
VERTEX
100
AcDbVertex
100
AcDb2dVertex
8
COFFR
10
223.91371
20
84.049339
30
0.0
0
VERTEX
100
AcDbVertex
100
AcDb2dVertex
8
COFFR
10
222.580122
20
84.212503
30
0.0
0
VERTEX
100
AcDbVertex
100
AcDb2dVertex
8
COFFR
10
221.246713
20
84.372851
30
0.0
0
VERTEX
100
AcDbVertex
100
AcDb2dVertex
8
COFFR
10
219.913253
20
84.530222
30
0.0
0
VERTEX
100
AcDbVertex
100
AcDb2dVertex
8
COFFR
10
218.57986
20
84.684824
30
0.0
0
VERTEX
100
AcDbVertex
100
AcDb2dVertex
8
COFFR
10
217.246705
20
84.837397
30
0.0
0
VERTEX
100
AcDbVertex
100
AcDb2dVertex
8
COFFR
10
215.913046
20
84.986371
30
0.0
0
VERTEX
100
AcDbVertex
100
AcDb2dVertex
8
COFFR
10
214.579037
20
85.130657
30
0.0
0
VERTEX
100
AcDbVertex
100
AcDb2dVertex
8
COFFR
10
213.244919
20
85.269926
30
0.0
0
VERTEX
100
AcDbVertex
100
AcDb2dVertex
8
COFFR
10
211.909982
20
85.401626
30
0.0
0
VERTEX
100
AcDbVertex
100
AcDb2dVertex
8
COFFR
10
210.575859
20
85.528307
30
0.0
0
VERTEX
100
AcDbVertex
100
AcDb2dVertex
8
COFFR
10
209.241839
20
85.650277
30
0.0
0
VERTEX
100
AcDbVertex
100
AcDb2dVertex
8
COFFR
10
207.908167
20
85.768615
30
0.0
0
VERTEX
100
AcDbVertex
100
AcDb2dVertex
8
COFFR
10
206.574991
20
85.884863
30
0.0
0
VERTEX
100
AcDbVertex
100
AcDb2dVertex
8
COFFR
10
205.241573
20
85.998263
30
0.0
0
VERTEX
100
AcDbVertex
100
AcDb2dVertex
8
COFFR
10
203.90808
20
86.108581
30
0.0
0
VERTEX
100
AcDbVertex
100
AcDb2dVertex
8
COFFR
10
202.574636
20
86.215974
30
0.0
0
VERTEX
100
AcDbVertex
100
AcDb2dVertex
8
COFFR
10
201.240998
20
86.319835
30
0.0
0
VERTEX
100
AcDbVertex
100
AcDb2dVertex
8
COFFR
10
199.907525
20
86.420682
30
0.0
0
VERTEX
100
AcDbVertex
100
AcDb2dVertex
8
COFFR
10
198.57398
20
86.518288
30
0.0
0
VERTEX
100
AcDbVertex
100
AcDb2dVertex
8
COFFR
10
197.240517
20
86.612908
30
0.0
0
VERTEX
100
AcDbVertex
100
AcDb2dVertex
8
COFFR
10
195.906984
20
86.704324
30
0.0
0
VERTEX
100
AcDbVertex
100
AcDb2dVertex
8
COFFR
10
194.573529
20
86.792781
30
0.0
0
VERTEX
100
AcDbVertex
100
AcDb2dVertex
8
COFFR
10
193.240002
20
86.878053
30
0.0
0
VERTEX
100
AcDbVertex
100
AcDb2dVertex
8
COFFR
10
191.906554
20
86.960386
30
0.0
0
VERTEX
100
AcDbVertex
100
AcDb2dVertex
8
COFFR
10
190.573035
20
87.03956
30
0.0
0
VERTEX
100
AcDbVertex
100
AcDb2dVertex
8
COFFR
10
189.239594
20
87.115817
30
0.0
0
VERTEX
100
AcDbVertex
100
AcDb2dVertex
8
COFFR
10
187.906082
20
87.188935
30
0.0
0
VERTEX
100
AcDbVertex
100
AcDb2dVertex
8
COFFR
10
186.572647
20
87.259154
30
0.0
0
VERTEX
100
AcDbVertex
100
AcDb2dVertex
8
COFFR
10
185.239142
20
87.326257
30
0.0
0
VERTEX
100
AcDbVertex
100
AcDb2dVertex
8
COFFR
10
183.905713
20
87.39048
30
0.0
0
VERTEX
100
AcDbVertex
100
AcDb2dVertex
8
COFFR
10
182.572212
20
87.451599
30
0.0
0
VERTEX
100
AcDbVertex
100
AcDb2dVertex
8
COFFR
10
181.238788
20
87.509852
30
0.0
0
VERTEX
100
AcDbVertex
100
AcDb2dVertex
8
COFFR
10
179.905292
20
87.565016
30
0.0
0
VERTEX
100
AcDbVertex
100
AcDb2dVertex
8
COFFR
10
178.57187
20
87.617322
30
0.0
0
VERTEX
100
AcDbVertex
100
AcDb2dVertex
8
COFFR
10
177.238374
20
87.666541
30
0.0
0
VERTEX
100
AcDbVertex
100
AcDb2dVertex
8
COFFR
10
175.904953
20
87.712904
30
0.0
0
VERTEX
100
AcDbVertex
100
AcDb2dVertex
8
COFFR
10
174.571458
20
87.756181
30
0.0
0
VERTEX
100
AcDbVertex
100
AcDb2dVertex
8
COFFR
10
173.238035
20
87.796598
30
0.0
0
VERTEX
100
AcDbVertex
100
AcDb2dVertex
8
COFFR
10
171.904536
20
87.833917
30
0.0
0
VERTEX
100
AcDbVertex
100
AcDb2dVertex
8
COFFR
10
170.57111
20
87.868364
30
0.0
0
VERTEX
100
AcDbVertex
100
AcDb2dVertex
8
COFFR
10
169.237689
20
87.899957
30
0.0
0
VERTEX
100
AcDbVertex
100
AcDb2dVertex
8
COFFR
10
167.90422
20
87.928542
30
0.0
0
VERTEX
100
AcDbVertex
100
AcDb2dVertex
8
COFFR
10
166.570637
20
87.953769
30
0.0
0
VERTEX
100
AcDbVertex
100
AcDb2dVertex
8
COFFR
10
165.237124
20
87.975859
30
0.0
0
VERTEX
100
AcDbVertex
100
AcDb2dVertex
8
COFFR
10
163.903204
20
87.993543
30
0.0
0
VERTEX
100
AcDbVertex
100
AcDb2dVertex
8
COFFR
10
162.569931
20
88.008833
30
0.0
0
VERTEX
100
AcDbVertex
100
AcDb2dVertex
8
COFFR
10
161.236841
20
88.022293
30
0.0
0
VERTEX
100
AcDbVertex
100
AcDb2dVertex
8
COFFR
10
159.904
20
88.034696
30
0.0
0
VERTEX
100
AcDbVertex
100
AcDb2dVertex
8
COFFR
10
158.57182
20
88.048093
30
0.0
0
VERTEX
100
AcDbVertex
100
AcDb2dVertex
8
COFFR
10
157.238942
20
88.060317
30
0.0
0
VERTEX
100
AcDbVertex
100
AcDb2dVertex
8
COFFR
10
155.905772
20
88.070462
30
0.0
0
VERTEX
100
AcDbVertex
100
AcDb2dVertex
8
COFFR
10
154.572389
20
88.077868
30
0.0
0
VERTEX
100
AcDbVertex
100
AcDb2dVertex
8
COFFR
10
153.238304
20
88.080359
30
0.0
0
VERTEX
100
AcDbVertex
100
AcDb2dVertex
8
COFFR
10
151.905382
20
88.079175
30
0.0
0
VERTEX
100
AcDbVertex
100
AcDb2dVertex
8
COFFR
10
150.574183
20
88.073955
30
0.0
0
VERTEX
100
AcDbVertex
100
AcDb2dVertex
8
COFFR
10
149.24288
20
88.065024
30
0.0
0
VERTEX
100
AcDbVertex
100
AcDb2dVertex
8
COFFR
10
147.911574
20
88.052394
30
0.0
0
VERTEX
100
AcDbVertex
100
AcDb2dVertex
8
COFFR
10
146.580282
20
88.036018
30
0.0
0
VERTEX
100
AcDbVertex
100
AcDb2dVertex
8
COFFR
10
145.24912
20
88.015492
30
0.0
0
VERTEX
100
AcDbVertex
100
AcDb2dVertex
8
COFFR
10
143.917882
20
87.991053
30
0.0
0
VERTEX
100
AcDbVertex
100
AcDb2dVertex
8
COFFR
10
142.586781
20
87.962278
30
0.0
0
VERTEX
100
AcDbVertex
100
AcDb2dVertex
8
COFFR
10
141.255597
20
87.929421
30
0.0
0
VERTEX
100
AcDbVertex
100
AcDb2dVertex
8
COFFR
10
139.924555
20
87.892045
30
0.0
0
VERTEX
100
AcDbVertex
100
AcDb2dVertex
8
COFFR
10
138.593427
20
87.850415
30
0.0
0
VERTEX
100
AcDbVertex
100
AcDb2dVertex
8
COFFR
10
137.262446
20
87.804076
30
0.0
0
VERTEX
100
AcDbVertex
100
AcDb2dVertex
8
COFFR
10
135.931375
20
87.753307
30
0.0
0
VERTEX
100
AcDbVertex
100
AcDb2dVertex
8
COFFR
10
134.600456
20
87.697637
30
0.0
0
VERTEX
100
AcDbVertex
100
AcDb2dVertex
8
COFFR
10
133.269443
20
87.637356
30
0.0
0
VERTEX
100
AcDbVertex
100
AcDb2dVertex
8
COFFR
10
131.938589
20
87.571973
30
0.0
0
VERTEX
100
AcDbVertex
100
AcDb2dVertex
8
COFFR
10
130.607636
20
87.501793
30
0.0
0
VERTEX
100
AcDbVertex
100
AcDb2dVertex
8
COFFR
10
129.276845
20
87.426316
30
0.0
0
VERTEX
100
AcDbVertex
100
AcDb2dVertex
8
COFFR
10
127.94609
20
87.345428
30
0.0
0
VERTEX
100
AcDbVertex
100
AcDb2dVertex
8
COFFR
10
126.615092
20
87.259882
30
0.0
0
VERTEX
100
AcDbVertex
100
AcDb2dVertex
8
COFFR
10
125.284398
20
87.168739
30
0.0
0
VERTEX
100
AcDbVertex
100
AcDb2dVertex
8
COFFR
10
123.953738
20
87.07189
30
0.0
0
VERTEX
100
AcDbVertex
100
AcDb2dVertex
8
COFFR
10
122.623115
20
86.969222
30
0.0
0
VERTEX
100
AcDbVertex
100
AcDb2dVertex
8
COFFR
10
121.292229
20
86.861547
30
0.0
0
VERTEX
100
AcDbVertex
100
AcDb2dVertex
8
COFFR
10
119.961667
20
86.747869
30
0.0
0
VERTEX
100
AcDbVertex
100
AcDb2dVertex
8
COFFR
10
118.631139
20
86.628075
30
0.0
0
VERTEX
100
AcDbVertex
100
AcDb2dVertex
8
COFFR
10
117.300652
20
86.502041
30
0.0
0
VERTEX
100
AcDbVertex
100
AcDb2dVertex
8
COFFR
10
115.96989
20
86.370615
30
0.0
0
VERTEX
100
AcDbVertex
100
AcDb2dVertex
8
COFFR
10
114.639454
20
86.232794
30
0.0
0
VERTEX
100
AcDbVertex
100
AcDb2dVertex
8
COFFR
10
113.30904
20
86.088507
30
0.0
0
VERTEX
100
AcDbVertex
100
AcDb2dVertex
8
COFFR
10
111.978638
20
85.937713
30
0.0
0
VERTEX
100
AcDbVertex
100
AcDb2dVertex
8
COFFR
10
110.647907
20
85.78143
30
0.0
0
VERTEX
100
AcDbVertex
100
AcDb2dVertex
8
COFFR
10
109.317636
20
85.618242
30
0.0
0
VERTEX
100
AcDbVertex
100
AcDb2dVertex
8
COFFR
10
107.987497
20
85.447735
30
0.0
0
VERTEX
100
AcDbVertex
100
AcDb2dVertex
8
COFFR
10
106.657495
20
85.269486
30
0.0
0
VERTEX
100
AcDbVertex
100
AcDb2dVertex
8
COFFR
10
105.32723
20
85.084304
30
0.0
0
VERTEX
100
AcDbVertex
100
AcDb2dVertex
8
COFFR
10
103.997261
20
84.891278
30
0.0
0
VERTEX
100
AcDbVertex
100
AcDb2dVertex
8
COFFR
10
102.667197
20
84.690697
30
0.0
0
VERTEX
100
AcDbVertex
100
AcDb2dVertex
8
COFFR
10
101.337041
20
84.482845
30
0.0
0
VERTEX
100
AcDbVertex
100
AcDb2dVertex
8
COFFR
10
100.006435
20
84.269111
30
0.0
0
VERTEX
100
AcDbVertex
100
AcDb2dVertex
8
COFFR
10
98.676242
20
84.048233
30
0.0
0
VERTEX
100
AcDbVertex
100
AcDb2dVertex
8
COFFR
10
97.346105
20
83.820028
30
0.0
0
VERTEX
100
AcDbVertex
100
AcDb2dVertex
8
COFFR
10
96.016017
20
83.584344
30
0.0
0
VERTEX
100
AcDbVertex
100
AcDb2dVertex
8
COFFR
10
94.685603
20
83.342183
30
0.0
0
VERTEX
100
AcDbVertex
100
AcDb2dVertex
8
COFFR
10
93.355582
20
83.092345
30
0.0
0
VERTEX
100
AcDbVertex
100
AcDb2dVertex
8
COFFR
10
92.025585
20
82.834746
30
0.0
0
VERTEX
100
AcDbVertex
100
AcDb2dVertex
8
COFFR
10
90.695647
20
82.569201
30
0.0
0
VERTEX
100
AcDbVertex
100
AcDb2dVertex
8
COFFR
10
89.365386
20
82.296704
30
0.0
0
VERTEX
100
AcDbVertex
100
AcDb2dVertex
8
COFFR
10
88.035448
20
82.016269
30
0.0
0
VERTEX
100
AcDbVertex
100
AcDb2dVertex
8
COFFR
10
86.705467
20
81.728021
30
0.0
0
VERTEX
100
AcDbVertex
100
AcDb2dVertex
8
COFFR
10
85.375394
20
81.432244
30
0.0
0
VERTEX
100
AcDbVertex
100
AcDb2dVertex
8
COFFR
10
84.044794
20
81.130558
30
0.0
0
VERTEX
100
AcDbVertex
100
AcDb2dVertex
8
COFFR
10
82.715159
20
80.820013
30
0.0
0
VERTEX
100
AcDbVertex
100
AcDb2dVertex
8
COFFR
10
81.386088
20
80.498852
30
0.0
0
VERTEX
100
AcDbVertex
100
AcDb2dVertex
8
COFFR
10
80.0576
20
80.165267
30
0.0
0
VERTEX
100
AcDbVertex
100
AcDb2dVertex
8
COFFR
10
78.729036
20
79.819474
30
0.0
0
VERTEX
100
AcDbVertex
100
AcDb2dVertex
8
COFFR
10
77.400495
20
79.4614
30
0.0
0
VERTEX
100
AcDbVertex
100
AcDb2dVertex
8
COFFR
10
76.071317
20
79.092998
30
0.0
0
VERTEX
100
AcDbVertex
100
AcDb2dVertex
8
COFFR
10
74.741519
20
78.716188
30
0.0
0
VERTEX
100
AcDbVertex
100
AcDb2dVertex
8
COFFR
10
73.410742
20
78.333994
30
0.0
0
VERTEX
100
AcDbVertex
100
AcDb2dVertex
8
COFFR
10
72.080487
20
77.944856
30
0.0
0
VERTEX
100
AcDbVertex
100
AcDb2dVertex
8
COFFR
10
70.750359
20
77.548363
30
0.0
0
VERTEX
100
AcDbVertex
100
AcDb2dVertex
8
COFFR
10
69.420321
20
77.144233
30
0.0
0
VERTEX
100
AcDbVertex
100
AcDb2dVertex
8
COFFR
10
68.090024
20
76.733256
30
0.0
0
VERTEX
100
AcDbVertex
100
AcDb2dVertex
8
COFFR
10
66.760087
20
76.314342
30
0.0
0
VERTEX
100
AcDbVertex
100
AcDb2dVertex
8
COFFR
10
65.430157
20
75.887451
30
0.0
0
VERTEX
100
AcDbVertex
100
AcDb2dVertex
8
COFFR
10
64.100278
20
75.452431
30
0.0
0
VERTEX
100
AcDbVertex
100
AcDb2dVertex
8
COFFR
10
62.770031
20
75.010402
30
0.0
0
VERTEX
100
AcDbVertex
100
AcDb2dVertex
8
COFFR
10
61.440304
20
74.55979
30
0.0
0
VERTEX
100
AcDbVertex
100
AcDb2dVertex
8
COFFR
10
60.110703
20
74.100187
30
0.0
0
VERTEX
100
AcDbVertex
100
AcDb2dVertex
8
COFFR
10
58.781277
20
73.631053
30
0.0
0
VERTEX
100
AcDbVertex
100
AcDb2dVertex
8
COFFR
10
57.451553
20
73.153287
30
0.0
0
VERTEX
100
AcDbVertex
100
AcDb2dVertex
8
COFFR
10
56.122241
20
72.665645
30
0.0
0
VERTEX
100
AcDbVertex
100
AcDb2dVertex
8
COFFR
10
54.792909
20
72.168168
30
0.0
0
VERTEX
100
AcDbVertex
100
AcDb2dVertex
8
COFFR
10
53.463569
20
71.660882
30
0.0
0
VERTEX
100
AcDbVertex
100
AcDb2dVertex
8
COFFR
10
52.13369
20
71.145427
30
0.0
0
VERTEX
100
AcDbVertex
100
AcDb2dVertex
8
COFFR
10
50.804901
20
70.618514
30
0.0
0
VERTEX
100
AcDbVertex
100
AcDb2dVertex
8
COFFR
10
49.476753
20
70.078124
30
0.0
0
VERTEX
100
AcDbVertex
100
AcDb2dVertex
8
COFFR
10
48.149264
20
69.522215
30
0.0
0
VERTEX
100
AcDbVertex
100
AcDb2dVertex
8
COFFR
10
46.821553
20
68.951424
30
0.0
0
VERTEX
100
AcDbVertex
100
AcDb2dVertex
8
COFFR
10
45.494865
20
68.362646
30
0.0
0
VERTEX
100
AcDbVertex
100
AcDb2dVertex
8
COFFR
10
44.168434
20
67.755039
30
0.0
0
VERTEX
100
AcDbVertex
100
AcDb2dVertex
8
COFFR
10
42.842305
20
67.127664
30
0.0
0
VERTEX
100
AcDbVertex
100
AcDb2dVertex
8
COFFR
10
41.515399
20
66.482862
30
0.0
0
VERTEX
100
AcDbVertex
100
AcDb2dVertex
8
COFFR
10
40.189842
20
65.816585
30
0.0
0
VERTEX
100
AcDbVertex
100
AcDb2dVertex
8
COFFR
10
38.864663
20
65.127591
30
0.0
0
VERTEX
100
AcDbVertex
100
AcDb2dVertex
8
COFFR
10
37.539804
20
64.414876
30
0.0
0
VERTEX
100
AcDbVertex
100
AcDb2dVertex
8
COFFR
10
36.21394
20
63.681462
30
0.0
0
VERTEX
100
AcDbVertex
100
AcDb2dVertex
8
COFFR
10
34.889974
20
62.92167
30
0.0
0
VERTEX
100
AcDbVertex
100
AcDb2dVertex
8
COFFR
10
33.566689
20
62.133285
30
0.0
0
VERTEX
100
AcDbVertex
100
AcDb2dVertex
8
COFFR
10
32.244189
20
61.313875
30
0.0
0
VERTEX
100
AcDbVertex
100
AcDb2dVertex
8
COFFR
10
30.920888
20
60.465784
30
0.0
0
VERTEX
100
AcDbVertex
100
AcDb2dVertex
8
COFFR
10
29.598525
20
59.58624
30
0.0
0
VERTEX
100
AcDbVertex
100
AcDb2dVertex
8
COFFR
10
28.275613
20
58.676806
30
0.0
0
VERTEX
100
AcDbVertex
100
AcDb2dVertex
8
COFFR
10
26.951751
20
57.74039
30
0.0
0
VERTEX
100
AcDbVertex
100
AcDb2dVertex
8
COFFR
10
25.627914
20
56.776997
30
0.0
0
VERTEX
100
AcDbVertex
100
AcDb2dVertex
8
COFFR
10
24.304586
20
55.785087
30
0.0
0
VERTEX
100
AcDbVertex
100
AcDb2dVertex
8
COFFR
10
22.982807
20
54.759936
30
0.0
0
VERTEX
100
AcDbVertex
100
AcDb2dVertex
8
COFFR
10
21.661088
20
53.701186
30
0.0
0
VERTEX
100
AcDbVertex
100
AcDb2dVertex
8
COFFR
10
20.341238
20
52.603206
30
0.0
0
SEQEND
0
POLYLINE
5
 503
100
AcDbEntity
8
COFFR
66
 1
100
AcDb2dPolyline
70
 0
0
VERTEX
100
AcDbVertex
100
AcDb2dVertex
8
COFFR
10
526.352702
20
4.117586
30
0.0
0
VERTEX
100
AcDbVertex
100
AcDb2dVertex
8
COFFR
10
525.032685
20
4.031648
30
0.0
0
VERTEX
100
AcDbVertex
100
AcDb2dVertex
8
COFFR
10
523.704804
20
3.931429
30
0.0
0
VERTEX
100
AcDbVertex
100
AcDb2dVertex
8
COFFR
10
522.36732
20
3.846762
30
0.0
0
VERTEX
100
AcDbVertex
100
AcDb2dVertex
8
COFFR
10
521.028041
20
3.783122
30
0.0
0
VERTEX
100
AcDbVertex
100
AcDb2dVertex
8
COFFR
10
519.695541
20
3.719428
30
0.0
0
VERTEX
100
AcDbVertex
100
AcDb2dVertex
8
COFFR
10
518.363041
20
3.655734
30
0.0
0
VERTEX
100
AcDbVertex
100
AcDb2dVertex
8
COFFR
10
517.030542
20
3.592036
30
0.0
0
VERTEX
100
AcDbVertex
100
AcDb2dVertex
8
COFFR
10
515.693143
20
3.54356
30
0.0
0
VERTEX
100
AcDbVertex
100
AcDb2dVertex
8
COFFR
10
514.35926
20
3.49935
30
0.0
0
VERTEX
100
AcDbVertex
100
AcDb2dVertex
8
COFFR
10
513.025318
20
3.459608
30
0.0
0
VERTEX
100
AcDbVertex
100
AcDb2dVertex
8
COFFR
10
511.691544
20
3.423817
30
0.0
0
VERTEX
100
AcDbVertex
100
AcDb2dVertex
8
COFFR
10
510.357718
20
3.392138
30
0.0
0
VERTEX
100
AcDbVertex
100
AcDb2dVertex
8
COFFR
10
509.024046
20
3.364092
30
0.0
0
VERTEX
100
AcDbVertex
100
AcDb2dVertex
8
COFFR
10
507.690328
20
3.339822
30
0.0
0
VERTEX
100
AcDbVertex
100
AcDb2dVertex
8
COFFR
10
506.356753
20
3.318885
30
0.0
0
VERTEX
100
AcDbVertex
100
AcDb2dVertex
8
COFFR
10
505.023136
20
3.301411
30
0.0
0
VERTEX
100
AcDbVertex
100
AcDb2dVertex
8
COFFR
10
503.689654
20
3.286981
30
0.0
0
VERTEX
100
AcDbVertex
100
AcDb2dVertex
8
COFFR
10
502.356138
20
3.275701
30
0.0
0
VERTEX
100
AcDbVertex
100
AcDb2dVertex
8
COFFR
10
501.022745
20
3.267191
30
0.0
0
VERTEX
100
AcDbVertex
100
AcDb2dVertex
8
COFFR
10
499.689324
20
3.261535
30
0.0
0
VERTEX
100
AcDbVertex
100
AcDb2dVertex
8
COFFR
10
498.356013
20
3.258393
30
0.0
0
VERTEX
100
AcDbVertex
100
AcDb2dVertex
8
COFFR
10
497.022677
20
3.257844
30
0.0
0
VERTEX
100
AcDbVertex
100
AcDb2dVertex
8
COFFR
10
495.690557
20
3.259571
30
0.0
0
VERTEX
100
AcDbVertex
100
AcDb2dVertex
8
COFFR
10
494.358852
20
3.263763
30
0.0
0
VERTEX
100
AcDbVertex
100
AcDb2dVertex
8
COFFR
10
493.026995
20
3.269949
30
0.0
0
VERTEX
100
AcDbVertex
100
AcDb2dVertex
8
COFFR
10
491.695138
20
3.278129
30
0.0
0
VERTEX
100
AcDbVertex
100
AcDb2dVertex
8
COFFR
10
490.363194
20
3.288032
30
0.0
0
VERTEX
100
AcDbVertex
100
AcDb2dVertex
8
COFFR
10
489.031125
20
3.299272
30
0.0
0
VERTEX
100
AcDbVertex
100
AcDb2dVertex
8
COFFR
10
487.699221
20
3.312359
30
0.0
0
VERTEX
100
AcDbVertex
100
AcDb2dVertex
8
COFFR
10
486.367442
20
3.327684
30
0.0
0
VERTEX
100
AcDbVertex
100
AcDb2dVertex
8
COFFR
10
485.035673
20
3.345273
30
0.0
0
VERTEX
100
AcDbVertex
100
AcDb2dVertex
8
COFFR
10
483.704178
20
3.365979
30
0.0
0
VERTEX
100
AcDbVertex
100
AcDb2dVertex
8
COFFR
10
482.372389
20
3.388888
30
0.0
0
VERTEX
100
AcDbVertex
100
AcDb2dVertex
8
COFFR
10
481.04056
20
3.413878
30
0.0
0
VERTEX
100
AcDbVertex
100
AcDb2dVertex
8
COFFR
10
479.708573
20
3.440461
30
0.0
0
VERTEX
100
AcDbVertex
100
AcDb2dVertex
8
COFFR
10
478.376494
20
3.468349
30
0.0
0
VERTEX
100
AcDbVertex
100
AcDb2dVertex
8
COFFR
10
477.044271
20
3.497097
30
0.0
0
VERTEX
100
AcDbVertex
100
AcDb2dVertex
8
COFFR
10
475.711945
20
3.526384
30
0.0
0
VERTEX
100
AcDbVertex
100
AcDb2dVertex
8
COFFR
10
474.379503
20
3.555852
30
0.0
0
VERTEX
100
AcDbVertex
100
AcDb2dVertex
8
COFFR
10
473.046866
20
3.584896
30
0.0
0
VERTEX
100
AcDbVertex
100
AcDb2dVertex
8
COFFR
10
471.714324
20
3.613808
30
0.0
0
VERTEX
100
AcDbVertex
100
AcDb2dVertex
8
COFFR
10
470.381781
20
3.642588
30
0.0
0
VERTEX
100
AcDbVertex
100
AcDb2dVertex
8
COFFR
10
469.049259
20
3.671301
30
0.0
0
VERTEX
100
AcDbVertex
100
AcDb2dVertex
8
COFFR
10
467.716808
20
3.700164
30
0.0
0
VERTEX
100
AcDbVertex
100
AcDb2dVertex
8
COFFR
10
466.384309
20
3.729029
30
0.0
0
VERTEX
100
AcDbVertex
100
AcDb2dVertex
8
COFFR
10
465.051807
20
3.757889
30
0.0
0
VERTEX
100
AcDbVertex
100
AcDb2dVertex
8
COFFR
10
463.719307
20
3.786748
30
0.0
0
VERTEX
100
AcDbVertex
100
AcDb2dVertex
8
COFFR
10
462.386803
20
3.815597
30
0.0
0
VERTEX
100
AcDbVertex
100
AcDb2dVertex
8
COFFR
10
461.054303
20
3.844445
30
0.0
0
VERTEX
100
AcDbVertex
100
AcDb2dVertex
8
COFFR
10
459.721803
20
3.873292
30
0.0
0
VERTEX
100
AcDbVertex
100
AcDb2dVertex
8
COFFR
10
458.389304
20
3.902143
30
0.0
0
VERTEX
100
AcDbVertex
100
AcDb2dVertex
8
COFFR
10
457.056806
20
3.930999
30
0.0
0
VERTEX
100
AcDbVertex
100
AcDb2dVertex
8
COFFR
10
455.724308
20
3.959861
30
0.0
0
VERTEX
100
AcDbVertex
100
AcDb2dVertex
8
COFFR
10
454.391808
20
3.988724
30
0.0
0
VERTEX
100
AcDbVertex
100
AcDb2dVertex
8
COFFR
10
453.059309
20
4.017591
30
0.0
0
VERTEX
100
AcDbVertex
100
AcDb2dVertex
8
COFFR
10
451.726808
20
4.046454
30
0.0
0
VERTEX
100
AcDbVertex
100
AcDb2dVertex
8
COFFR
10
450.394309
20
4.075319
30
0.0
0
VERTEX
100
AcDbVertex
100
AcDb2dVertex
8
COFFR
10
449.061807
20
4.104179
30
0.0
0
VERTEX
100
AcDbVertex
100
AcDb2dVertex
8
COFFR
10
447.729307
20
4.133039
30
0.0
0
VERTEX
100
AcDbVertex
100
AcDb2dVertex
8
COFFR
10
446.396803
20
4.161887
30
0.0
0
VERTEX
100
AcDbVertex
100
AcDb2dVertex
8
COFFR
10
445.064303
20
4.190735
30
0.0
0
VERTEX
100
AcDbVertex
100
AcDb2dVertex
8
COFFR
10
443.731803
20
4.219582
30
0.0
0
VERTEX
100
AcDbVertex
100
AcDb2dVertex
8
COFFR
10
442.399304
20
4.248433
30
0.0
0
VERTEX
100
AcDbVertex
100
AcDb2dVertex
8
COFFR
10
441.066806
20
4.277289
30
0.0
0
VERTEX
100
AcDbVertex
100
AcDb2dVertex
8
COFFR
10
439.734308
20
4.306151
30
0.0
0
VERTEX
100
AcDbVertex
100
AcDb2dVertex
8
COFFR
10
438.401808
20
4.335014
30
0.0
0
VERTEX
100
AcDbVertex
100
AcDb2dVertex
8
COFFR
10
437.069309
20
4.363881
30
0.0
0
VERTEX
100
AcDbVertex
100
AcDb2dVertex
8
COFFR
10
435.736822
20
4.392788
30
0.0
0
VERTEX
100
AcDbVertex
100
AcDb2dVertex
8
COFFR
10
434.404316
20
4.421676
30
0.0
0
VERTEX
100
AcDbVertex
100
AcDb2dVertex
8
COFFR
10
433.071803
20
4.450522
30
0.0
0
VERTEX
100
AcDbVertex
100
AcDb2dVertex
8
COFFR
10
431.73929
20
4.479328
30
0.0
0
VERTEX
100
AcDbVertex
100
AcDb2dVertex
8
COFFR
10
430.406707
20
4.507879
30
0.0
0
VERTEX
100
AcDbVertex
100
AcDb2dVertex
8
COFFR
10
429.074242
20
4.536536
30
0.0
0
VERTEX
100
AcDbVertex
100
AcDb2dVertex
8
COFFR
10
427.741825
20
4.565451
30
0.0
0
VERTEX
100
AcDbVertex
100
AcDb2dVertex
8
COFFR
10
426.40944
20
4.594722
30
0.0
0
VERTEX
100
AcDbVertex
100
AcDb2dVertex
8
COFFR
10
425.077212
20
4.624836
30
0.0
0
VERTEX
100
AcDbVertex
100
AcDb2dVertex
8
COFFR
10
423.744795
20
4.655208
30
0.0
0
VERTEX
100
AcDbVertex
100
AcDb2dVertex
8
COFFR
10
422.41231
20
4.685627
30
0.0
0
VERTEX
100
AcDbVertex
100
AcDb2dVertex
8
COFFR
10
421.079754
20
4.715873
30
0.0
0
VERTEX
100
AcDbVertex
100
AcDb2dVertex
8
COFFR
10
419.747026
20
4.745411
30
0.0
0
VERTEX
100
AcDbVertex
100
AcDb2dVertex
8
COFFR
10
418.414389
20
4.774526
30
0.0
0
VERTEX
100
AcDbVertex
100
AcDb2dVertex
8
COFFR
10
417.081735
20
4.803164
30
0.0
0
VERTEX
100
AcDbVertex
100
AcDb2dVertex
8
COFFR
10
415.749098
20
4.831376
30
0.0
0
VERTEX
100
AcDbVertex
100
AcDb2dVertex
8
COFFR
10
414.416478
20
4.859215
30
0.0
0
VERTEX
100
AcDbVertex
100
AcDb2dVertex
8
COFFR
10
413.083841
20
4.886631
30
0.0
0
VERTEX
100
AcDbVertex
100
AcDb2dVertex
8
COFFR
10
411.751187
20
4.913569
30
0.0
0
VERTEX
100
AcDbVertex
100
AcDb2dVertex
8
COFFR
10
410.418542
20
4.940056
30
0.0
0
VERTEX
100
AcDbVertex
100
AcDb2dVertex
8
COFFR
10
409.085878
20
4.966037
30
0.0
0
VERTEX
100
AcDbVertex
100
AcDb2dVertex
8
COFFR
10
407.753224
20
4.991538
30
0.0
0
VERTEX
100
AcDbVertex
100
AcDb2dVertex
8
COFFR
10
406.42055
20
5.0165
30
0.0
0
VERTEX
100
AcDbVertex
100
AcDb2dVertex
8
COFFR
10
405.087886
20
5.040954
30
0.0
0
VERTEX
100
AcDbVertex
100
AcDb2dVertex
8
COFFR
10
403.755201
20
5.064835
30
0.0
0
VERTEX
100
AcDbVertex
100
AcDb2dVertex
8
COFFR
10
402.42253
20
5.088185
30
0.0
0
VERTEX
100
AcDbVertex
100
AcDb2dVertex
8
COFFR
10
401.089841
20
5.110948
30
0.0
0
VERTEX
100
AcDbVertex
100
AcDb2dVertex
8
COFFR
10
399.757165
20
5.133165
30
0.0
0
VERTEX
100
AcDbVertex
100
AcDb2dVertex
8
COFFR
10
398.424471
20
5.154782
30
0.0
0
VERTEX
100
AcDbVertex
100
AcDb2dVertex
8
COFFR
10
397.091789
20
5.175834
30
0.0
0
VERTEX
100
AcDbVertex
100
AcDb2dVertex
8
COFFR
10
395.759087
20
5.19626
30
0.0
0
VERTEX
100
AcDbVertex
100
AcDb2dVertex
8
COFFR
10
394.426398
20
5.216101
30
0.0
0
VERTEX
100
AcDbVertex
100
AcDb2dVertex
8
COFFR
10
393.093689
20
5.235293
30
0.0
0
VERTEX
100
AcDbVertex
100
AcDb2dVertex
8
COFFR
10
391.760995
20
5.253883
30
0.0
0
VERTEX
100
AcDbVertex
100
AcDb2dVertex
8
COFFR
10
390.428281
20
5.271811
30
0.0
0
VERTEX
100
AcDbVertex
100
AcDb2dVertex
8
COFFR
10
389.095583
20
5.289124
30
0.0
0
VERTEX
100
AcDbVertex
100
AcDb2dVertex
8
COFFR
10
387.762865
20
5.305761
30
0.0
0
VERTEX
100
AcDbVertex
100
AcDb2dVertex
8
COFFR
10
386.430164
20
5.321774
30
0.0
0
VERTEX
100
AcDbVertex
100
AcDb2dVertex
8
COFFR
10
385.097444
20
5.337105
30
0.0
0
VERTEX
100
AcDbVertex
100
AcDb2dVertex
8
COFFR
10
383.764741
20
5.351806
30
0.0
0
VERTEX
100
AcDbVertex
100
AcDb2dVertex
8
COFFR
10
382.432002
20
5.365768
30
0.0
0
VERTEX
100
AcDbVertex
100
AcDb2dVertex
8
COFFR
10
381.099305
20
5.379119
30
0.0
0
VERTEX
100
AcDbVertex
100
AcDb2dVertex
8
COFFR
10
379.766597
20
5.391823
30
0.0
0
VERTEX
100
AcDbVertex
100
AcDb2dVertex
8
COFFR
10
378.433906
20
5.403935
30
0.0
0
VERTEX
100
AcDbVertex
100
AcDb2dVertex
8
COFFR
10
377.101263
20
5.415603
30
0.0
0
VERTEX
100
AcDbVertex
100
AcDb2dVertex
8
COFFR
10
375.76852
20
5.426517
30
0.0
0
VERTEX
100
AcDbVertex
100
AcDb2dVertex
8
COFFR
10
374.435704
20
5.436452
30
0.0
0
VERTEX
100
AcDbVertex
100
AcDb2dVertex
8
COFFR
10
373.102869
20
5.44535
30
0.0
0
VERTEX
100
AcDbVertex
100
AcDb2dVertex
8
COFFR
10
371.769864
20
5.452682
30
0.0
0
VERTEX
100
AcDbVertex
100
AcDb2dVertex
8
COFFR
10
370.437033
20
5.458987
30
0.0
0
VERTEX
100
AcDbVertex
100
AcDb2dVertex
8
COFFR
10
369.104225
20
5.464336
30
0.0
0
VERTEX
100
AcDbVertex
100
AcDb2dVertex
8
COFFR
10
367.771492
20
5.468962
30
0.0
0
VERTEX
100
AcDbVertex
100
AcDb2dVertex
8
COFFR
10
366.438865
20
5.473194
30
0.0
0
VERTEX
100
AcDbVertex
100
AcDb2dVertex
8
COFFR
10
365.10619
20
5.476884
30
0.0
0
VERTEX
100
AcDbVertex
100
AcDb2dVertex
8
COFFR
10
363.773502
20
5.479991
30
0.0
0
VERTEX
100
AcDbVertex
100
AcDb2dVertex
8
COFFR
10
362.440827
20
5.482554
30
0.0
0
VERTEX
100
AcDbVertex
100
AcDb2dVertex
8
COFFR
10
361.108114
20
5.484458
30
0.0
0
VERTEX
100
AcDbVertex
100
AcDb2dVertex
8
COFFR
10
359.775439
20
5.485819
30
0.0
0
VERTEX
100
AcDbVertex
100
AcDb2dVertex
8
COFFR
10
358.442753
20
5.486603
30
0.0
0
VERTEX
100
AcDbVertex
100
AcDb2dVertex
8
COFFR
10
357.110086
20
5.486871
30
0.0
0
VERTEX
100
AcDbVertex
100
AcDb2dVertex
8
COFFR
10
355.77759
20
5.486594
30
0.0
0
VERTEX
100
AcDbVertex
100
AcDb2dVertex
8
COFFR
10
354.445247
20
5.485829
30
0.0
0
VERTEX
100
AcDbVertex
100
AcDb2dVertex
8
COFFR
10
353.112911
20
5.484553
30
0.0
0
VERTEX
100
AcDbVertex
100
AcDb2dVertex
8
COFFR
10
351.780559
20
5.48282
30
0.0
0
VERTEX
100
AcDbVertex
100
AcDb2dVertex
8
COFFR
10
350.448211
20
5.480615
30
0.0
0
VERTEX
100
AcDbVertex
100
AcDb2dVertex
8
COFFR
10
349.115849
20
5.477981
30
0.0
0
VERTEX
100
AcDbVertex
100
AcDb2dVertex
8
COFFR
10
347.783494
20
5.474899
30
0.0
0
VERTEX
100
AcDbVertex
100
AcDb2dVertex
8
COFFR
10
346.451124
20
5.471414
30
0.0
0
VERTEX
100
AcDbVertex
100
AcDb2dVertex
8
COFFR
10
345.118761
20
5.467505
30
0.0
0
VERTEX
100
AcDbVertex
100
AcDb2dVertex
8
COFFR
10
343.786381
20
5.463224
30
0.0
0
VERTEX
100
AcDbVertex
100
AcDb2dVertex
8
COFFR
10
342.454004
20
5.458559
30
0.0
0
VERTEX
100
AcDbVertex
100
AcDb2dVertex
8
COFFR
10
341.121613
20
5.453558
30
0.0
0
VERTEX
100
AcDbVertex
100
AcDb2dVertex
8
COFFR
10
339.789223
20
5.448214
30
0.0
0
VERTEX
100
AcDbVertex
100
AcDb2dVertex
8
COFFR
10
338.456821
20
5.442567
30
0.0
0
VERTEX
100
AcDbVertex
100
AcDb2dVertex
8
COFFR
10
337.124422
20
5.436606
30
0.0
0
VERTEX
100
AcDbVertex
100
AcDb2dVertex
8
COFFR
10
335.79201
20
5.430372
30
0.0
0
VERTEX
100
AcDbVertex
100
AcDb2dVertex
8
COFFR
10
334.4596
20
5.423859
30
0.0
0
VERTEX
100
AcDbVertex
100
AcDb2dVertex
8
COFFR
10
333.127179
20
5.417101
30
0.0
0
VERTEX
100
AcDbVertex
100
AcDb2dVertex
8
COFFR
10
331.79476
20
5.410093
30
0.0
0
VERTEX
100
AcDbVertex
100
AcDb2dVertex
8
COFFR
10
330.46233
20
5.402869
30
0.0
0
VERTEX
100
AcDbVertex
100
AcDb2dVertex
8
COFFR
10
329.129874
20
5.395508
30
0.0
0
VERTEX
100
AcDbVertex
100
AcDb2dVertex
8
COFFR
10
327.797446
20
5.387922
30
0.0
0
VERTEX
100
AcDbVertex
100
AcDb2dVertex
8
COFFR
10
326.465029
20
5.38008
30
0.0
0
VERTEX
100
AcDbVertex
100
AcDb2dVertex
8
COFFR
10
325.132603
20
5.372008
30
0.0
0
VERTEX
100
AcDbVertex
100
AcDb2dVertex
8
COFFR
10
323.800278
20
5.363395
30
0.0
0
VERTEX
100
AcDbVertex
100
AcDb2dVertex
8
COFFR
10
322.467764
20
5.354824
30
0.0
0
VERTEX
100
AcDbVertex
100
AcDb2dVertex
8
COFFR
10
321.135165
20
5.346561
30
0.0
0
VERTEX
100
AcDbVertex
100
AcDb2dVertex
8
COFFR
10
319.802502
20
5.338803
30
0.0
0
VERTEX
100
AcDbVertex
100
AcDb2dVertex
8
COFFR
10
318.469604
20
5.332279
30
0.0
0
VERTEX
100
AcDbVertex
100
AcDb2dVertex
8
COFFR
10
317.136936
20
5.326275
30
0.0
0
VERTEX
100
AcDbVertex
100
AcDb2dVertex
8
COFFR
10
315.804327
20
5.320611
30
0.0
0
VERTEX
100
AcDbVertex
100
AcDb2dVertex
8
COFFR
10
314.471799
20
5.315031
30
0.0
0
VERTEX
100
AcDbVertex
100
AcDb2dVertex
8
COFFR
10
313.139454
20
5.308974
30
0.0
0
VERTEX
100
AcDbVertex
100
AcDb2dVertex
8
COFFR
10
311.807004
20
5.302758
30
0.0
0
VERTEX
100
AcDbVertex
100
AcDb2dVertex
8
COFFR
10
310.474557
20
5.296379
30
0.0
0
VERTEX
100
AcDbVertex
100
AcDb2dVertex
8
COFFR
10
309.142098
20
5.289874
30
0.0
0
VERTEX
100
AcDbVertex
100
AcDb2dVertex
8
COFFR
10
307.809603
20
5.283353
30
0.0
0
VERTEX
100
AcDbVertex
100
AcDb2dVertex
8
COFFR
10
306.477132
20
5.276741
30
0.0
0
VERTEX
100
AcDbVertex
100
AcDb2dVertex
8
COFFR
10
305.144664
20
5.27003
30
0.0
0
VERTEX
100
AcDbVertex
100
AcDb2dVertex
8
COFFR
10
303.812195
20
5.263223
30
0.0
0
VERTEX
100
AcDbVertex
100
AcDb2dVertex
8
COFFR
10
302.479728
20
5.256314
30
0.0
0
VERTEX
100
AcDbVertex
100
AcDb2dVertex
8
COFFR
10
301.14726
20
5.249307
30
0.0
0
VERTEX
100
AcDbVertex
100
AcDb2dVertex
8
COFFR
10
299.814795
20
5.242192
30
0.0
0
VERTEX
100
AcDbVertex
100
AcDb2dVertex
8
COFFR
10
298.482328
20
5.234974
30
0.0
0
VERTEX
100
AcDbVertex
100
AcDb2dVertex
8
COFFR
10
297.149864
20
5.227645
30
0.0
0
VERTEX
100
AcDbVertex
100
AcDb2dVertex
8
COFFR
10
295.817399
20
5.220206
30
0.0
0
VERTEX
100
AcDbVertex
100
AcDb2dVertex
8
COFFR
10
294.484938
20
5.212645
30
0.0
0
VERTEX
100
AcDbVertex
100
AcDb2dVertex
8
COFFR
10
293.152476
20
5.204966
30
0.0
0
VERTEX
100
AcDbVertex
100
AcDb2dVertex
8
COFFR
10
291.820019
20
5.197154
30
0.0
0
VERTEX
100
AcDbVertex
100
AcDb2dVertex
8
COFFR
10
290.48756
20
5.189216
30
0.0
0
VERTEX
100
AcDbVertex
100
AcDb2dVertex
8
COFFR
10
289.155104
20
5.18114
30
0.0
0
VERTEX
100
AcDbVertex
100
AcDb2dVertex
8
COFFR
10
287.822647
20
5.172933
30
0.0
0
VERTEX
100
AcDbVertex
100
AcDb2dVertex
8
COFFR
10
286.490193
20
5.164582
30
0.0
0
VERTEX
100
AcDbVertex
100
AcDb2dVertex
8
COFFR
10
285.157738
20
5.156092
30
0.0
0
VERTEX
100
AcDbVertex
100
AcDb2dVertex
8
COFFR
10
283.825287
20
5.14745
30
0.0
0
VERTEX
100
AcDbVertex
100
AcDb2dVertex
8
COFFR
10
282.492834
20
5.138661
30
0.0
0
VERTEX
100
AcDbVertex
100
AcDb2dVertex
8
COFFR
10
281.160386
20
5.129711
30
0.0
0
VERTEX
100
AcDbVertex
100
AcDb2dVertex
8
COFFR
10
279.827936
20
5.120606
30
0.0
0
VERTEX
100
AcDbVertex
100
AcDb2dVertex
8
COFFR
10
278.495492
20
5.111328
30
0.0
0
VERTEX
100
AcDbVertex
100
AcDb2dVertex
8
COFFR
10
277.163046
20
5.101883
30
0.0
0
VERTEX
100
AcDbVertex
100
AcDb2dVertex
8
COFFR
10
275.830613
20
5.092231
30
0.0
0
VERTEX
100
AcDbVertex
100
AcDb2dVertex
8
COFFR
10
274.498166
20
5.082415
30
0.0
0
VERTEX
100
AcDbVertex
100
AcDb2dVertex
8
COFFR
10
273.165721
20
5.072428
30
0.0
0
VERTEX
100
AcDbVertex
100
AcDb2dVertex
8
COFFR
10
271.833272
20
5.062281
30
0.0
0
VERTEX
100
AcDbVertex
100
AcDb2dVertex
8
COFFR
10
270.500801
20
5.052045
30
0.0
0
VERTEX
100
AcDbVertex
100
AcDb2dVertex
8
COFFR
10
269.168376
20
5.041577
30
0.0
0
VERTEX
100
AcDbVertex
100
AcDb2dVertex
8
COFFR
10
267.835979
20
5.030788
30
0.0
0
VERTEX
100
AcDbVertex
100
AcDb2dVertex
8
COFFR
10
266.503595
20
5.019641
30
0.0
0
VERTEX
100
AcDbVertex
100
AcDb2dVertex
8
COFFR
10
265.171279
20
5.007921
30
0.0
0
VERTEX
100
AcDbVertex
100
AcDb2dVertex
8
COFFR
10
263.838896
20
4.995839
30
0.0
0
VERTEX
100
AcDbVertex
100
AcDb2dVertex
8
COFFR
10
262.506503
20
4.983425
30
0.0
0
VERTEX
100
AcDbVertex
100
AcDb2dVertex
8
COFFR
10
261.174083
20
4.970764
30
0.0
0
VERTEX
100
AcDbVertex
100
AcDb2dVertex
8
COFFR
10
259.841618
20
4.957995
30
0.0
0
VERTEX
100
AcDbVertex
100
AcDb2dVertex
8
COFFR
10
258.509178
20
4.94504
30
0.0
0
VERTEX
100
AcDbVertex
100
AcDb2dVertex
8
COFFR
10
257.176743
20
4.931884
30
0.0
0
VERTEX
100
AcDbVertex
100
AcDb2dVertex
8
COFFR
10
255.844307
20
4.91853
30
0.0
0
VERTEX
100
AcDbVertex
100
AcDb2dVertex
8
COFFR
10
254.511887
20
4.904925
30
0.0
0
VERTEX
100
AcDbVertex
100
AcDb2dVertex
8
COFFR
10
253.179455
20
4.891112
30
0.0
0
VERTEX
100
AcDbVertex
100
AcDb2dVertex
8
COFFR
10
251.847027
20
4.877075
30
0.0
0
VERTEX
100
AcDbVertex
100
AcDb2dVertex
8
COFFR
10
250.514593
20
4.862831
30
0.0
0
VERTEX
100
AcDbVertex
100
AcDb2dVertex
8
COFFR
10
249.182163
20
4.84837
30
0.0
0
VERTEX
100
AcDbVertex
100
AcDb2dVertex
8
COFFR
10
247.84973
20
4.833704
30
0.0
0
VERTEX
100
AcDbVertex
100
AcDb2dVertex
8
COFFR
10
246.517301
20
4.818815
30
0.0
0
VERTEX
100
AcDbVertex
100
AcDb2dVertex
8
COFFR
10
245.184868
20
4.80372
30
0.0
0
VERTEX
100
AcDbVertex
100
AcDb2dVertex
8
COFFR
10
243.85244
20
4.788401
30
0.0
0
VERTEX
100
AcDbVertex
100
AcDb2dVertex
8
COFFR
10
242.520006
20
4.772877
30
0.0
0
VERTEX
100
AcDbVertex
100
AcDb2dVertex
8
COFFR
10
241.187576
20
4.757137
30
0.0
0
VERTEX
100
AcDbVertex
100
AcDb2dVertex
8
COFFR
10
239.85514
20
4.741199
30
0.0
0
VERTEX
100
AcDbVertex
100
AcDb2dVertex
8
COFFR
10
238.522706
20
4.725057
30
0.0
0
VERTEX
100
AcDbVertex
100
AcDb2dVertex
8
COFFR
10
237.190269
20
4.708719
30
0.0
0
VERTEX
100
AcDbVertex
100
AcDb2dVertex
8
COFFR
10
235.857837
20
4.692171
30
0.0
0
VERTEX
100
AcDbVertex
100
AcDb2dVertex
8
COFFR
10
234.5254
20
4.675427
30
0.0
0
VERTEX
100
AcDbVertex
100
AcDb2dVertex
8
COFFR
10
233.192968
20
4.65847
30
0.0
0
VERTEX
100
AcDbVertex
100
AcDb2dVertex
8
COFFR
10
231.860531
20
4.641318
30
0.0
0
VERTEX
100
AcDbVertex
100
AcDb2dVertex
8
COFFR
10
230.528099
20
4.623957
30
0.0
0
VERTEX
100
AcDbVertex
100
AcDb2dVertex
8
COFFR
10
229.195661
20
4.606402
30
0.0
0
VERTEX
100
AcDbVertex
100
AcDb2dVertex
8
COFFR
10
227.863227
20
4.588642
30
0.0
0
VERTEX
100
AcDbVertex
100
AcDb2dVertex
8
COFFR
10
226.530788
20
4.570696
30
0.0
0
VERTEX
100
AcDbVertex
100
AcDb2dVertex
8
COFFR
10
225.198351
20
4.552554
30
0.0
0
VERTEX
100
AcDbVertex
100
AcDb2dVertex
8
COFFR
10
223.865908
20
4.534234
30
0.0
0
VERTEX
100
AcDbVertex
100
AcDb2dVertex
8
COFFR
10
222.533466
20
4.515735
30
0.0
0
VERTEX
100
AcDbVertex
100
AcDb2dVertex
8
COFFR
10
221.201021
20
4.497064
30
0.0
0
VERTEX
100
AcDbVertex
100
AcDb2dVertex
8
COFFR
10
219.86858
20
4.47821
30
0.0
0
VERTEX
100
AcDbVertex
100
AcDb2dVertex
8
COFFR
10
218.536135
20
4.459187
30
0.0
0
VERTEX
100
AcDbVertex
100
AcDb2dVertex
8
COFFR
10
217.203695
20
4.439977
30
0.0
0
VERTEX
100
AcDbVertex
100
AcDb2dVertex
8
COFFR
10
215.871246
20
4.420609
30
0.0
0
VERTEX
100
AcDbVertex
100
AcDb2dVertex
8
COFFR
10
214.538796
20
4.401085
30
0.0
0
VERTEX
100
AcDbVertex
100
AcDb2dVertex
8
COFFR
10
213.206341
20
4.381422
30
0.0
0
VERTEX
100
AcDbVertex
100
AcDb2dVertex
8
COFFR
10
211.873881
20
4.361634
30
0.0
0
VERTEX
100
AcDbVertex
100
AcDb2dVertex
8
COFFR
10
210.541423
20
4.341717
30
0.0
0
VERTEX
100
AcDbVertex
100
AcDb2dVertex
8
COFFR
10
209.208968
20
4.32166
30
0.0
0
VERTEX
100
AcDbVertex
100
AcDb2dVertex
8
COFFR
10
207.876511
20
4.301471
30
0.0
0
VERTEX
100
AcDbVertex
100
AcDb2dVertex
8
COFFR
10
206.544059
20
4.281133
30
0.0
0
VERTEX
100
AcDbVertex
100
AcDb2dVertex
8
COFFR
10
205.211601
20
4.260665
30
0.0
0
VERTEX
100
AcDbVertex
100
AcDb2dVertex
8
COFFR
10
203.879144
20
4.240061
30
0.0
0
VERTEX
100
AcDbVertex
100
AcDb2dVertex
8
COFFR
10
202.546684
20
4.219336
30
0.0
0
VERTEX
100
AcDbVertex
100
AcDb2dVertex
8
COFFR
10
201.214223
20
4.198487
30
0.0
0
VERTEX
100
AcDbVertex
100
AcDb2dVertex
8
COFFR
10
199.881759
20
4.177527
30
0.0
0
VERTEX
100
AcDbVertex
100
AcDb2dVertex
8
COFFR
10
198.549296
20
4.156455
30
0.0
0
VERTEX
100
AcDbVertex
100
AcDb2dVertex
8
COFFR
10
197.216828
20
4.135281
30
0.0
0
VERTEX
100
AcDbVertex
100
AcDb2dVertex
8
COFFR
10
195.88436
20
4.114009
30
0.0
0
VERTEX
100
AcDbVertex
100
AcDb2dVertex
8
COFFR
10
194.551888
20
4.092649
30
0.0
0
VERTEX
100
AcDbVertex
100
AcDb2dVertex
8
COFFR
10
193.219416
20
4.071203
30
0.0
0
VERTEX
100
AcDbVertex
100
AcDb2dVertex
8
COFFR
10
191.88694
20
4.049681
30
0.0
0
VERTEX
100
AcDbVertex
100
AcDb2dVertex
8
COFFR
10
190.554463
20
4.02809
30
0.0
0
VERTEX
100
AcDbVertex
100
AcDb2dVertex
8
COFFR
10
189.221983
20
4.006436
30
0.0
0
VERTEX
100
AcDbVertex
100
AcDb2dVertex
8
COFFR
10
187.889502
20
3.984724
30
0.0
0
VERTEX
100
AcDbVertex
100
AcDb2dVertex
8
COFFR
10
186.557018
20
3.962962
30
0.0
0
VERTEX
100
AcDbVertex
100
AcDb2dVertex
8
COFFR
10
185.224532
20
3.941155
30
0.0
0
VERTEX
100
AcDbVertex
100
AcDb2dVertex
8
COFFR
10
183.892044
20
3.919312
30
0.0
0
VERTEX
100
AcDbVertex
100
AcDb2dVertex
8
COFFR
10
182.559553
20
3.897441
30
0.0
0
VERTEX
100
AcDbVertex
100
AcDb2dVertex
8
COFFR
10
181.22706
20
3.87555
30
0.0
0
VERTEX
100
AcDbVertex
100
AcDb2dVertex
8
COFFR
10
179.894563
20
3.853648
30
0.0
0
VERTEX
100
AcDbVertex
100
AcDb2dVertex
8
COFFR
10
178.562064
20
3.831745
30
0.0
0
VERTEX
100
AcDbVertex
100
AcDb2dVertex
8
COFFR
10
177.22956
20
3.809853
30
0.0
0
VERTEX
100
AcDbVertex
100
AcDb2dVertex
8
COFFR
10
175.897054
20
3.787978
30
0.0
0
VERTEX
100
AcDbVertex
100
AcDb2dVertex
8
COFFR
10
174.564543
20
3.766139
30
0.0
0
VERTEX
100
AcDbVertex
100
AcDb2dVertex
8
COFFR
10
173.232031
20
3.744336
30
0.0
0
VERTEX
100
AcDbVertex
100
AcDb2dVertex
8
COFFR
10
171.899515
20
3.722585
30
0.0
0
VERTEX
100
AcDbVertex
100
AcDb2dVertex
8
COFFR
10
170.566998
20
3.700886
30
0.0
0
VERTEX
100
AcDbVertex
100
AcDb2dVertex
8
COFFR
10
169.234456
20
3.679318
30
0.0
0
VERTEX
100
AcDbVertex
100
AcDb2dVertex
8
COFFR
10
167.901941
20
3.657793
30
0.0
0
VERTEX
100
AcDbVertex
100
AcDb2dVertex
8
COFFR
10
166.569429
20
3.636307
30
0.0
0
VERTEX
100
AcDbVertex
100
AcDb2dVertex
8
COFFR
10
165.236917
20
3.61486
30
0.0
0
VERTEX
100
AcDbVertex
100
AcDb2dVertex
8
COFFR
10
163.904473
20
3.593237
30
0.0
0
VERTEX
100
AcDbVertex
100
AcDb2dVertex
8
COFFR
10
162.571896
20
3.571855
30
0.0
0
VERTEX
100
AcDbVertex
100
AcDb2dVertex
8
COFFR
10
161.239248
20
3.550932
30
0.0
0
VERTEX
100
AcDbVertex
100
AcDb2dVertex
8
COFFR
10
159.906559
20
3.530593
30
0.0
0
VERTEX
100
AcDbVertex
100
AcDb2dVertex
8
COFFR
10
158.573687
20
3.511408
30
0.0
0
VERTEX
100
AcDbVertex
100
AcDb2dVertex
8
COFFR
10
157.240995
20
3.492819
30
0.0
0
VERTEX
100
AcDbVertex
100
AcDb2dVertex
8
COFFR
10
155.908339
20
3.474713
30
0.0
0
VERTEX
100
AcDbVertex
100
AcDb2dVertex
8
COFFR
10
154.575751
20
3.456881
30
0.0
0
VERTEX
100
AcDbVertex
100
AcDb2dVertex
8
COFFR
10
153.243291
20
3.438923
30
0.0
0
VERTEX
100
AcDbVertex
100
AcDb2dVertex
8
COFFR
10
151.910759
20
3.421065
30
0.0
0
VERTEX
100
AcDbVertex
100
AcDb2dVertex
8
COFFR
10
150.57822
20
3.403327
30
0.0
0
VERTEX
100
AcDbVertex
100
AcDb2dVertex
8
COFFR
10
149.245676
20
3.385726
30
0.0
0
VERTEX
100
AcDbVertex
100
AcDb2dVertex
8
COFFR
10
147.913096
20
3.368373
30
0.0
0
VERTEX
100
AcDbVertex
100
AcDb2dVertex
8
COFFR
10
146.580539
20
3.351197
30
0.0
0
VERTEX
100
AcDbVertex
100
AcDb2dVertex
8
COFFR
10
145.247973
20
3.334225
30
0.0
0
VERTEX
100
AcDbVertex
100
AcDb2dVertex
8
COFFR
10
143.91541
20
3.317449
30
0.0
0
VERTEX
100
AcDbVertex
100
AcDb2dVertex
8
COFFR
10
142.582837
20
3.300899
30
0.0
0
VERTEX
100
AcDbVertex
100
AcDb2dVertex
8
COFFR
10
141.250268
20
3.284565
30
0.0
0
VERTEX
100
AcDbVertex
100
AcDb2dVertex
8
COFFR
10
139.917687
20
3.26848
30
0.0
0
VERTEX
100
AcDbVertex
100
AcDb2dVertex
8
COFFR
10
138.585109
20
3.252637
30
0.0
0
VERTEX
100
AcDbVertex
100
AcDb2dVertex
8
COFFR
10
137.252519
20
3.237073
30
0.0
0
VERTEX
100
AcDbVertex
100
AcDb2dVertex
8
COFFR
10
135.919933
20
3.221776
30
0.0
0
VERTEX
100
AcDbVertex
100
AcDb2dVertex
8
COFFR
10
134.587335
20
3.206785
30
0.0
0
VERTEX
100
AcDbVertex
100
AcDb2dVertex
8
COFFR
10
133.254739
20
3.192089
30
0.0
0
VERTEX
100
AcDbVertex
100
AcDb2dVertex
8
COFFR
10
131.922131
20
3.177729
30
0.0
0
VERTEX
100
AcDbVertex
100
AcDb2dVertex
8
COFFR
10
130.589525
20
3.163698
30
0.0
0
VERTEX
100
AcDbVertex
100
AcDb2dVertex
8
COFFR
10
129.256903
20
3.150046
30
0.0
0
VERTEX
100
AcDbVertex
100
AcDb2dVertex
8
COFFR
10
127.924272
20
3.136798
30
0.0
0
VERTEX
100
AcDbVertex
100
AcDb2dVertex
8
COFFR
10
126.591656
20
3.123912
30
0.0
0
VERTEX
100
AcDbVertex
100
AcDb2dVertex
8
COFFR
10
125.259012
20
3.111473
30
0.0
0
VERTEX
100
AcDbVertex
100
AcDb2dVertex
8
COFFR
10
123.92636
20
3.099505
30
0.0
0
VERTEX
100
AcDbVertex
100
AcDb2dVertex
8
COFFR
10
122.593699
20
3.088035
30
0.0
0
VERTEX
100
AcDbVertex
100
AcDb2dVertex
8
COFFR
10
121.261057
20
3.077006
30
0.0
0
VERTEX
100
AcDbVertex
100
AcDb2dVertex
8
COFFR
10
119.928379
20
3.066529
30
0.0
0
VERTEX
100
AcDbVertex
100
AcDb2dVertex
8
COFFR
10
118.595689
20
3.056641
30
0.0
0
VERTEX
100
AcDbVertex
100
AcDb2dVertex
8
COFFR
10
117.26298
20
3.047402
30
0.0
0
VERTEX
100
AcDbVertex
100
AcDb2dVertex
8
COFFR
10
115.930281
20
3.038779
30
0.0
0
VERTEX
100
AcDbVertex
100
AcDb2dVertex
8
COFFR
10
114.597565
20
3.030826
30
0.0
0
VERTEX
100
AcDbVertex
100
AcDb2dVertex
8
COFFR
10
113.264856
20
3.023521
30
0.0
0
VERTEX
100
AcDbVertex
100
AcDb2dVertex
8
COFFR
10
111.932166
20
3.016804
30
0.0
0
VERTEX
100
AcDbVertex
100
AcDb2dVertex
8
COFFR
10
110.599543
20
3.01047
30
0.0
0
VERTEX
100
AcDbVertex
100
AcDb2dVertex
8
COFFR
10
109.26673
20
3.005104
30
0.0
0
VERTEX
100
AcDbVertex
100
AcDb2dVertex
8
COFFR
10
107.933765
20
3.001181
30
0.0
0
VERTEX
100
AcDbVertex
100
AcDb2dVertex
8
COFFR
10
106.600642
20
2.999191
30
0.0
0
VERTEX
100
AcDbVertex
100
AcDb2dVertex
8
COFFR
10
105.267533
20
2.999294
30
0.0
0
VERTEX
100
AcDbVertex
100
AcDb2dVertex
8
COFFR
10
103.93565
20
3.00131
30
0.0
0
VERTEX
100
AcDbVertex
100
AcDb2dVertex
8
COFFR
10
102.603603
20
3.00473
30
0.0
0
VERTEX
100
AcDbVertex
100
AcDb2dVertex
8
COFFR
10
101.271396
20
3.009057
30
0.0
0
VERTEX
100
AcDbVertex
100
AcDb2dVertex
8
COFFR
10
99.938996
20
3.013698
30
0.0
0
VERTEX
100
AcDbVertex
100
AcDb2dVertex
8
COFFR
10
98.60669
20
3.018938
30
0.0
0
VERTEX
100
AcDbVertex
100
AcDb2dVertex
8
COFFR
10
97.274439
20
3.024951
30
0.0
0
VERTEX
100
AcDbVertex
100
AcDb2dVertex
8
COFFR
10
95.942232
20
3.031871
30
0.0
0
VERTEX
100
AcDbVertex
100
AcDb2dVertex
8
COFFR
10
94.610027
20
3.039707
30
0.0
0
VERTEX
100
AcDbVertex
100
AcDb2dVertex
8
COFFR
10
93.277876
20
3.048624
30
0.0
0
VERTEX
100
AcDbVertex
100
AcDb2dVertex
8
COFFR
10
91.945739
20
3.058668
30
0.0
0
VERTEX
100
AcDbVertex
100
AcDb2dVertex
8
COFFR
10
90.613609
20
3.069859
30
0.0
0
VERTEX
100
AcDbVertex
100
AcDb2dVertex
8
COFFR
10
89.281408
20
3.081978
30
0.0
0
VERTEX
100
AcDbVertex
100
AcDb2dVertex
8
COFFR
10
87.949371
20
3.095532
30
0.0
0
VERTEX
100
AcDbVertex
100
AcDb2dVertex
8
COFFR
10
86.617422
20
3.110794
30
0.0
0
VERTEX
100
AcDbVertex
100
AcDb2dVertex
8
COFFR
10
85.285603
20
3.128168
30
0.0
0
VERTEX
100
AcDbVertex
100
AcDb2dVertex
8
COFFR
10
83.953839
20
3.147823
30
0.0
0
VERTEX
100
AcDbVertex
100
AcDb2dVertex
8
COFFR
10
82.621807
20
3.16893
30
0.0
0
VERTEX
100
AcDbVertex
100
AcDb2dVertex
8
COFFR
10
81.289427
20
3.190411
30
0.0
0
VERTEX
100
AcDbVertex
100
AcDb2dVertex
8
COFFR
10
79.956691
20
3.211161
30
0.0
0
VERTEX
100
AcDbVertex
100
AcDb2dVertex
8
COFFR
10
78.623648
20
3.230225
30
0.0
0
VERTEX
100
AcDbVertex
100
AcDb2dVertex
8
COFFR
10
77.291087
20
3.249099
30
0.0
0
VERTEX
100
AcDbVertex
100
AcDb2dVertex
8
COFFR
10
75.959083
20
3.269511
30
0.0
0
VERTEX
100
AcDbVertex
100
AcDb2dVertex
8
COFFR
10
74.627628
20
3.293163
30
0.0
0
VERTEX
100
AcDbVertex
100
AcDb2dVertex
8
COFFR
10
73.296498
20
3.321062
30
0.0
0
VERTEX
100
AcDbVertex
100
AcDb2dVertex
8
COFFR
10
71.965546
20
3.353759
30
0.0
0
VERTEX
100
AcDbVertex
100
AcDb2dVertex
8
COFFR
10
70.6346
20
3.391274
30
0.0
0
VERTEX
100
AcDbVertex
100
AcDb2dVertex
8
COFFR
10
69.303694
20
3.43373
30
0.0
0
VERTEX
100
AcDbVertex
100
AcDb2dVertex
8
COFFR
10
67.972534
20
3.480342
30
0.0
0
VERTEX
100
AcDbVertex
100
AcDb2dVertex
8
COFFR
10
66.641745
20
3.532256
30
0.0
0
VERTEX
100
AcDbVertex
100
AcDb2dVertex
8
COFFR
10
65.311066
20
3.589815
30
0.0
0
VERTEX
100
AcDbVertex
100
AcDb2dVertex
8
COFFR
10
63.980497
20
3.653363
30
0.0
0
VERTEX
100
AcDbVertex
100
AcDb2dVertex
8
COFFR
10
62.649739
20
3.722311
30
0.0
0
VERTEX
100
AcDbVertex
100
AcDb2dVertex
8
COFFR
10
61.319229
20
3.797426
30
0.0
0
VERTEX
100
AcDbVertex
100
AcDb2dVertex
8
COFFR
10
59.988693
20
3.878633
30
0.0
0
VERTEX
100
AcDbVertex
100
AcDb2dVertex
8
COFFR
10
58.658036
20
3.965555
30
0.0
0
VERTEX
100
AcDbVertex
100
AcDb2dVertex
8
COFFR
10
57.326875
20
4.056631
30
0.0
0
VERTEX
100
AcDbVertex
100
AcDb2dVertex
8
COFFR
10
55.996772
20
4.155128
30
0.0
0
VERTEX
100
AcDbVertex
100
AcDb2dVertex
8
COFFR
10
54.66737
20
4.263225
30
0.0
0
VERTEX
100
AcDbVertex
100
AcDb2dVertex
8
COFFR
10
53.338756
20
4.383359
30
0.0
0
VERTEX
100
AcDbVertex
100
AcDb2dVertex
8
COFFR
10
52.01036
20
4.51621
30
0.0
0
VERTEX
100
AcDbVertex
100
AcDb2dVertex
8
COFFR
10
50.681148
20
4.659267
30
0.0
0
VERTEX
100
AcDbVertex
100
AcDb2dVertex
8
COFFR
10
49.350516
20
4.808136
30
0.0
0
VERTEX
100
AcDbVertex
100
AcDb2dVertex
8
COFFR
10
48.018417
20
4.958272
30
0.0
0
VERTEX
100
AcDbVertex
100
AcDb2dVertex
8
COFFR
10
46.684863
20
5.105162
30
0.0
0
VERTEX
100
AcDbVertex
100
AcDb2dVertex
8
COFFR
10
45.352515
20
5.252503
30
0.0
0
VERTEX
100
AcDbVertex
100
AcDb2dVertex
8
COFFR
10
44.021357
20
5.403986
30
0.0
0
VERTEX
100
AcDbVertex
100
AcDb2dVertex
8
COFFR
10
42.691254
20
5.562885
30
0.0
0
VERTEX
100
AcDbVertex
100
AcDb2dVertex
8
COFFR
10
41.361739
20
5.731028
30
0.0
0
VERTEX
100
AcDbVertex
100
AcDb2dVertex
8
COFFR
10
40.032226
20
5.908433
30
0.0
0
VERTEX
100
AcDbVertex
100
AcDb2dVertex
8
COFFR
10
38.702235
20
6.093628
30
0.0
0
VERTEX
100
AcDbVertex
100
AcDb2dVertex
8
COFFR
10
37.372172
20
6.286381
30
0.0
0
VERTEX
100
AcDbVertex
100
AcDb2dVertex
8
COFFR
10
36.041956
20
6.486219
30
0.0
0
VERTEX
100
AcDbVertex
100
AcDb2dVertex
8
COFFR
10
34.71
20
6.68778
30
0.0
0
VERTEX
100
AcDbVertex
100
AcDb2dVertex
8
COFFR
10
33.376175
20
6.885272
30
0.0
0
VERTEX
100
AcDbVertex
100
AcDb2dVertex
8
COFFR
10
32.041496
20
7.076021
30
0.0
0
VERTEX
100
AcDbVertex
100
AcDb2dVertex
8
COFFR
10
30.701403
20
7.243321
30
0.0
0
VERTEX
100
AcDbVertex
100
AcDb2dVertex
8
COFFR
10
29.368932
20
7.410564
30
0.0
0
VERTEX
100
AcDbVertex
100
AcDb2dVertex
8
COFFR
10
28.039732
20
7.587982
30
0.0
0
VERTEX
100
AcDbVertex
100
AcDb2dVertex
8
COFFR
10
26.713341
20
7.784287
30
0.0
0
VERTEX
100
AcDbVertex
100
AcDb2dVertex
8
COFFR
10
25.396394
20
8.028588
30
0.0
0
VERTEX
100
AcDbVertex
100
AcDb2dVertex
8
COFFR
10
24.071439
20
8.296454
30
0.0
0
VERTEX
100
AcDbVertex
100
AcDb2dVertex
8
COFFR
10
22.746691
20
8.588343
30
0.0
0
VERTEX
100
AcDbVertex
100
AcDb2dVertex
8
COFFR
10
21.422294
20
8.905338
30
0.0
0
VERTEX
100
AcDbVertex
100
AcDb2dVertex
8
COFFR
10
20.099491
20
9.252343
30
0.0
0
SEQEND
0
POLYLINE
5
 503
100
AcDbEntity
8
COFFR
66
 1
100
AcDb2dPolyline
70
 0
0
VERTEX
100
AcDbVertex
100
AcDb2dVertex
8
COFFR
10
527.67
20
4.453978
30
0.0
0
VERTEX
100
AcDbVertex
100
AcDb2dVertex
8
COFFR
10
533.0
20
3.8376
30
0.0
0
SEQEND
0
POLYLINE
5
 502
100
AcDbEntity
8
AXIS
66
 1
100
AcDb2dPolyline
70
 0
0
VERTEX
100
AcDbVertex
100
AcDb2dVertex
8
AXIS
10
112.000003
20
88.937319
30
0.0
0
VERTEX
100
AcDbVertex
100
AcDb2dVertex
8
AXIS
10
112.000003
20
0.016805
30
0.0
0
SEQEND
0
POLYLINE
5
 503
100
AcDbEntity
8
LONG
66
 1
100
AcDb2dPolyline
70
 1
0
VERTEX
100
AcDbVertex
100
AcDb2dVertex
8
LONG
10
108.000003
20
85.937319
30
0.0
0
VERTEX
100
AcDbVertex
100
AcDb2dVertex
8
LONG
10
116.000005
20
85.937319
30
0.0
0
VERTEX
100
AcDbVertex
100
AcDb2dVertex
8
LONG
10
116.000005
20
72.937319
30
0.0
0
VERTEX
100
AcDbVertex
100
AcDb2dVertex
8
LONG
10
108.000005
20
72.937319
30
0.0
0
SEQEND
0
POLYLINE
5
 503
100
AcDbEntity
8
LONG
66
 1
100
AcDb2dPolyline
70
 1
0
VERTEX
100
AcDbVertex
100
AcDb2dVertex
8
LONG
10
108.000003
20
3.016805
30
0.0
0
VERTEX
100
AcDbVertex
100
AcDb2dVertex
8
LONG
10
116.000005
20
3.016805
30
0.0
0
VERTEX
100
AcDbVertex
100
AcDb2dVertex
8
LONG
10
116.000005
20
16.016805
30
0.0
0
VERTEX
100
AcDbVertex
100
AcDb2dVertex
8
LONG
10
108.000005
20
16.016805
30
0.0
0
SEQEND
0
POLYLINE
5
 502
100
AcDbEntity
8
AXIS
66
 1
100
AcDb2dPolyline
70
 0
0
VERTEX
100
AcDbVertex
100
AcDb2dVertex
8
AXIS
10
324.999994
20
67.954605
30
0.0
0
VERTEX
100
AcDbVertex
100
AcDb2dVertex
8
AXIS
10
324.999994
20
2.37201
30
0.0
0
SEQEND
0
POLYLINE
5
 503
100
AcDbEntity
8
LONG
66
 1
100
AcDb2dPolyline
70
 1
0
VERTEX
100
AcDbVertex
100
AcDb2dVertex
8
LONG
10
320.999994
20
64.954605
30
0.0
0
VERTEX
100
AcDbVertex
100
AcDb2dVertex
8
LONG
10
328.999996
20
64.954605
30
0.0
0
VERTEX
100
AcDbVertex
100
AcDb2dVertex
8
LONG
10
328.999996
20
51.954605
30
0.0
0
VERTEX
100
AcDbVertex
100
AcDb2dVertex
8
LONG
10
320.999996
20
51.954605
30
0.0
0
SEQEND
0
POLYLINE
5
 503
100
AcDbEntity
8
LONG
66
 1
100
AcDb2dPolyline
70
 1
0
VERTEX
100
AcDbVertex
100
AcDb2dVertex
8
LONG
10
320.999994
20
5.37201
30
0.0
0
VERTEX
100
AcDbVertex
100
AcDb2dVertex
8
LONG
10
328.999996
20
5.37201
30
0.0
0
VERTEX
100
AcDbVertex
100
AcDb2dVertex
8
LONG
10
328.999996
20
18.37201
30
0.0
0
VERTEX
100
AcDbVertex
100
AcDb2dVertex
8
LONG
10
320.999996
20
18.37201
30
0.0
0
SEQEND
0
POLYLINE
5
 502
100
AcDbEntity
8
AXIS
66
 1
100
AcDb2dPolyline
70
 0
0
VERTEX
100
AcDbVertex
100
AcDb2dVertex
8
AXIS
10
136.999998
20
90.804039
30
0.0
0
VERTEX
100
AcDbVertex
100
AcDb2dVertex
8
AXIS
10
136.999998
20
0.237078
30
0.0
0
SEQEND
0
POLYLINE
5
 502
100
AcDbEntity
8
AXIS
66
 1
100
AcDb2dPolyline
70
 0
0
VERTEX
100
AcDbVertex
100
AcDb2dVertex
8
AXIS
10
120.499998
20
43.804039
30
0.0
0
VERTEX
100
AcDbVertex
100
AcDb2dVertex
8
AXIS
10
153.49999
20
43.804039
30
0.0
0
SEQEND
0
CIRCLE
5
 504
100
AcDbEntity
8
LONG
100
AcDbCircle
39
 0
10
136.999998
20
43.804039
30
0.0
40
16.5
0
POLYLINE
5
 502
100
AcDbEntity
8
AXIS
66
 1
100
AcDb2dPolyline
70
 0
0
VERTEX
100
AcDbVertex
100
AcDb2dVertex
8
AXIS
10
399.999995
20
47.352607
30
0.0
0
VERTEX
100
AcDbVertex
100
AcDb2dVertex
8
AXIS
10
399.999995
20
2.133174
30
0.0
0
SEQEND
0
POLYLINE
5
 502
100
AcDbEntity
8
AXIS
66
 1
100
AcDb2dPolyline
70
 0
0
VERTEX
100
AcDbVertex
100
AcDb2dVertex
8
AXIS
10
395.999995
20
23.352607
30
0.0
0
VERTEX
100
AcDbVertex
100
AcDb2dVertex
8
AXIS
10
403.999997
20
23.352607
30
0.0
0
SEQEND
0
CIRCLE
5
 504
100
AcDbEntity
8
LONG
100
AcDbCircle
39
 0
10
399.999995
20
23.352607
30
0.0
40
4.0
0
CIRCLE
5
 504
100
AcDbEntity
8
TROU
100
AcDbCircle
39
 0
10
65.000015
20
39.551292
30
0.0
40
20.0
0
POLYLINE
5
 502
100
AcDbEntity
8
AXIS
66
 1
100
AcDb2dPolyline
70
 0
0
VERTEX
100
AcDbVertex
100
AcDb2dVertex
8
AXIS
10
45.000015
20
39.551292
30
0.0
0
VERTEX
100
AcDbVertex
100
AcDb2dVertex
8
AXIS
10
84.999983
20
39.551292
30
0.0
0
SEQEND
0
POLYLINE
5
 502
100
AcDbEntity
8
AXIS
66
 1
100
AcDb2dPolyline
70
 0
0
VERTEX
100
AcDbVertex
100
AcDb2dVertex
8
AXIS
10
65.000015
20
29.551292
30
0.0
0
VERTEX
100
AcDbVertex
100
AcDb2dVertex
8
AXIS
10
65.000015
20
49.551292
30
0.0
0
SEQEND
0
CIRCLE
5
 504
100
AcDbEntity
8
TROU
100
AcDbCircle
39
 0
10
209.999985
20
44.985843
30
0.0
40
25.0
0
POLYLINE
5
 502
100
AcDbEntity
8
AXIS
66
 1
100
AcDb2dPolyline
70
 0
0
VERTEX
100
AcDbVertex
100
AcDb2dVertex
8
AXIS
10
184.999985
20
44.985843
30
0.0
0
VERTEX
100
AcDbVertex
100
AcDb2dVertex
8
AXIS
10
235.000006
20
44.985843
30
0.0
0
SEQEND
0
POLYLINE
5
 502
100
AcDbEntity
8
AXIS
66
 1
100
AcDb2dPolyline
70
 0
0
VERTEX
100
AcDbVertex
100
AcDb2dVertex
8
AXIS
10
209.999985
20
32.485843
30
0.0
0
VERTEX
100
AcDbVertex
100
AcDb2dVertex
8
AXIS
10
209.999985
20
57.485843
30
0.0
0
SEQEND
0
CIRCLE
5
 504
100
AcDbEntity
8
TROU
100
AcDbCircle
39
 0
10
274.99999
20
40.498629
30
0.0
40
20.0
0
POLYLINE
5
 502
100
AcDbEntity
8
AXIS
66
 1
100
AcDb2dPolyline
70
 0
0
VERTEX
100
AcDbVertex
100
AcDb2dVertex
8
AXIS
10
254.99999
20
40.498629
30
0.0
0
VERTEX
100
AcDbVertex
100
AcDb2dVertex
8
AXIS
10
294.999999
20
40.498629
30
0.0
0
SEQEND
0
POLYLINE
5
 502
100
AcDbEntity
8
AXIS
66
 1
100
AcDb2dPolyline
70
 0
0
VERTEX
100
AcDbVertex
100
AcDb2dVertex
8
AXIS
10
274.99999
20
30.498629
30
0.0
0
VERTEX
100
AcDbVertex
100
AcDb2dVertex
8
AXIS
10
274.99999
20
50.498629
30
0.0
0
SEQEND
0
ENDSEC
0
EOF
