0
SECTION
2
HEADER
9
$ACADVER
1
AC1004
9
$INSBASE
10
0.0
20
0.0
9
$EXTMIN
10
-10.0
20
-50.0
9
$EXTMAX
10
220.0
20
50.0
9
$LIMMIN
10
-9.184627
20
4.296983
9
$LIMMAX
10
44.815373
20
28.296983
9
$VIEWCTR
10
6.0
20
4.5
9
$VIEWSIZE
40
 9
9
$SNAPMODE
70
 1
9
$SNAPUNIT
10
0.0625
20
0.0625
9
$SNAPBASE
10
0.0
20
0.0
9
$SNAPANG
50
 0
9
$SNAPSTYLE
70
 0
9
$SNAPISOPAIR
70
 0
9
$GRIDMODE
70
 0
9
$GRIDUNIT
10
0.0625
20
0.0625
9
$ORTHOMODE
70
 0
9
$REGENMODE
70
 1
9
$FILLMODE
70
 1
9
$QTEXTMODE
70
 0
9
$DRAGMODE
70
 2
9
$LTSCALE
40
0.44
9
$OSMODE
70
 0
9
$ATTMODE
70
 1
9
$TEXTSIZE
40
0.2
9
$TRACEWID
40
0.05
9
$TEXTSTYLE
7
STANDARD
9
$CLAYER
8
LAYER01
9
$CELTYPE
6
CONTINUOUS
9
$CECOLOR
62
 7
9
$DIMSCALE
40
 1
9
$DIMASZ
40
0.18
9
$DIMEXO
40
0.0625
9
$DIMDLI
40
0.38
9
$DIMRND
40
 0
9
$DIMDLE
40
 0
9
$DIMEXE
40
0.18
9
$DIMTP
40
 0
9
$DIMTM
40
 0
9
$DIMTXT
40
0.18
9
$DIMCEN
40
0.09
9
$DIMTSZ
40
 0
9
$DIMTOL
70
 0
9
$DIMLIM
70
 0
9
$DIMTIH
70
 1
9
$DIMTOH
70
 1
9
$DIMSE1
70
 0
9
$DIMSE2
70
 0
9
$DIMTAD
70
 0
9
$DIMZIN
70
 0
9
$DIMBLK
1

9
$DIMASO
70
 1
9
$DIMSHO
70
 1
9
$DIMPOST
1

9
$DIMAPOST
1

9
$DIMALT
70
 0
9
$DIMALTD
70
 2
9
$DIMALTF
40
25.4
9
$DIMLFAC
40
 1
9
$LUNITS
70
 2
9
$LUPREC
70
 4
9
$AXISMODE
70
 0
9
$AXISUNIT
10
0.0
20
0.0
9
$SKETCHINC
40
0.1
9
$FILLETRAD
40
0.125
9
$AUNITS
70
 0
9
$AUPREC
70
 0
9
$MENU
1
acad
9
$ELEVATION
40
 0
9
$THICKNESS
40
 0
9
$VIEWDIR
10
0.0
20
0.0
30
1.0
9
$LIMCHECK
70
 0
9
$BLIPMODE
70
 1
9
$CHAMFERA
40
0.5
9
$CHAMFERB
40
0.5
9
$FASTZOOM
70
 1
9
$SKPOLY
70
 0
9
$TDCREATE
40
 0
9
$TDUPDATE
40
 0
9
$TDINDWG
40
 0
9
$TDUSRTIMER
40
 0
9
$USRTIMER
70
 1
9
$ANGBASE
50
 0
9
$ANGDIR
70
 0
9
$PDMODE
70
 0
9
$PDSIZE
40
 0
9
$PLINEWID
40
0.008
9
$COORDS
70
 2
9
$SPLFRAME
70
 0
9
$SPLINESEGS
70
 10
9
$ATTDIA
70
 0
9
$ATTREQ
70
 1
9
$USERI1
70
 0
9
$USERI2
70
 0
9
$USERI3
70
 0
9
$USERI4
70
 0
9
$USERI5
70
 0
9
$USERR1
40
 0
9
$USERR2
40
 0
9
$USERR3
40
 0
9
$USERR4
40
 0
9
$USERR5
40
 0
0
ENDSEC
0
SECTION
2
TABLES
0
TABLE
2
VPORT
5
 10
100
AcDbSymbolTable
70
 10
0
VPORT
5
 11
100
AcDbSymbolTableRecord
100
AcDbViewportTableRecord
2
*ACTIVE
70
 0
10
0.0
20
0.0
11
2.0
21
2.0
12
0.0
22
0.0
13
0.0
23
0.0
14
0.0
24
0.0
15
0.0
25
0.0
16
0.0
26
0.0
36
0.0
17
0.0
27
0.0
37
0.0
40
0.0
41
0.0
42
0.0
43
0.0
44
0.0
50
0.0
51
0.0
71
 0
72
 0
73
 0
74
 0
75
 0
76
 0
77
 0
78
 0
0
ENDTAB
0
TABLE
2
LTYPE
5
 50
100
AcDbSymbolTable
70
10
0
LTYPE
5
 100
100
AcDbSymbolTableRecord
100
AcDbLinetypeTableRecord
2
CONT
70
 0
3
Solid Line __________
72
 65
73
 0
40
0.0
0
LTYPE
5
 101
100
AcDbSymbolTableRecord
100
AcDbLinetypeTableRecord
2
HIDDEN
70
 0
3
Cache __ __ __ __ __ __ __
72
 65
73
 2
40
9.525
49
6.35
49
-3.175
0
LTYPE
5
 102
100
AcDbSymbolTableRecord
100
AcDbLinetypeTableRecord
2
AXIS
70
 0
3
Centre ____ _ ____ _ ____
72
 65
73
 4
40
50.8
49
31.75
49
-6.35
49
6.35
49
-6.35
0
ENDTAB
0
TABLE
2
LAYER
5
 25
100
AcDbSymbolTable
70
10
0
LAYER
5
 30
100
AcDbSymbolTableRecord
100
AcDbLayerTableRecord
2
Layer01
70
 0
62
 7
6
CONT
0
LAYER
5
 31
100
AcDbSymbolTableRecord
100
AcDbLayerTableRecord
2
TALON
70
 0
62
 10
6
CONT
0
LAYER
5
 32
100
AcDbSymbolTableRecord
100
AcDbLayerTableRecord
2
AXIS
70
 0
62
 10
6
AXIS
0
LAYER
5
 33
100
AcDbSymbolTableRecord
100
AcDbLayerTableRecord
2
COFFR
70
 0
62
 180
6
CONT
0
LAYER
5
 34
100
AcDbSymbolTableRecord
100
AcDbLayerTableRecord
2
LONG
70
 0
62
 210
6
CONT
0
LAYER
5
 35
100
AcDbSymbolTableRecord
100
AcDbLayerTableRecord
2
TROU
70
 0
62
 195
6
CONT
0
ENDTAB
0
ENDSEC
0
SECTION
2
ENTITIES
0
POLYLINE
5
 501
100
AcDbEntity
8
Layer01
66
 1
100
AcDb2dPolyline
70
 0
0
VERTEX
100
AcDbVertex
100
AcDb2dVertex
8
Layer01
10
533.0
20
0.0
30
0.0
0
VERTEX
100
AcDbVertex
100
AcDb2dVertex
8
Layer01
10
532.467007
20
1.279591
30
0.0
0
VERTEX
100
AcDbVertex
100
AcDb2dVertex
8
Layer01
10
531.934014
20
2.364168
30
0.0
0
VERTEX
100
AcDbVertex
100
AcDb2dVertex
8
Layer01
10
531.401021
20
3.276282
30
0.0
0
VERTEX
100
AcDbVertex
100
AcDb2dVertex
8
Layer01
10
530.868027
20
4.03682
30
0.0
0
VERTEX
100
AcDbVertex
100
AcDb2dVertex
8
Layer01
10
530.335034
20
4.665071
30
0.0
0
VERTEX
100
AcDbVertex
100
AcDb2dVertex
8
Layer01
10
529.802041
20
5.178785
30
0.0
0
VERTEX
100
AcDbVertex
100
AcDb2dVertex
8
Layer01
10
529.269048
20
5.594228
30
0.0
0
VERTEX
100
AcDbVertex
100
AcDb2dVertex
8
Layer01
10
528.736055
20
5.926244
30
0.0
0
VERTEX
100
AcDbVertex
100
AcDb2dVertex
8
Layer01
10
528.203062
20
6.188315
30
0.0
0
VERTEX
100
AcDbVertex
100
AcDb2dVertex
8
Layer01
10
527.670069
20
6.392619
30
0.0
0
VERTEX
100
AcDbVertex
100
AcDb2dVertex
8
Layer01
10
527.137012
20
6.550106
30
0.0
0
VERTEX
100
AcDbVertex
100
AcDb2dVertex
8
Layer01
10
526.604019
20
6.670488
30
0.0
0
VERTEX
100
AcDbVertex
100
AcDb2dVertex
8
Layer01
10
526.071026
20
6.762408
30
0.0
0
VERTEX
100
AcDbVertex
100
AcDb2dVertex
8
Layer01
10
525.538033
20
6.833422
30
0.0
0
VERTEX
100
AcDbVertex
100
AcDb2dVertex
8
Layer01
10
525.005039
20
6.89008
30
0.0
0
VERTEX
100
AcDbVertex
100
AcDb2dVertex
8
Layer01
10
524.472046
20
6.937982
30
0.0
0
VERTEX
100
AcDbVertex
100
AcDb2dVertex
8
Layer01
10
523.939053
20
6.981839
30
0.0
0
VERTEX
100
AcDbVertex
100
AcDb2dVertex
8
Layer01
10
523.40606
20
7.025534
30
0.0
0
VERTEX
100
AcDbVertex
100
AcDb2dVertex
8
Layer01
10
522.873067
20
7.072179
30
0.0
0
VERTEX
100
AcDbVertex
100
AcDb2dVertex
8
Layer01
10
522.340074
20
7.124177
30
0.0
0
VERTEX
100
AcDbVertex
100
AcDb2dVertex
8
Layer01
10
521.807017
20
7.183284
30
0.0
0
VERTEX
100
AcDbVertex
100
AcDb2dVertex
8
Layer01
10
521.274024
20
7.250643
30
0.0
0
VERTEX
100
AcDbVertex
100
AcDb2dVertex
8
Layer01
10
520.741031
20
7.326886
30
0.0
0
VERTEX
100
AcDbVertex
100
AcDb2dVertex
8
Layer01
10
520.208038
20
7.412164
30
0.0
0
VERTEX
100
AcDbVertex
100
AcDb2dVertex
8
Layer01
10
519.675044
20
7.506211
30
0.0
0
VERTEX
100
AcDbVertex
100
AcDb2dVertex
8
Layer01
10
519.142051
20
7.60841
30
0.0
0
VERTEX
100
AcDbVertex
100
AcDb2dVertex
8
Layer01
10
518.609058
20
7.717845
30
0.0
0
VERTEX
100
AcDbVertex
100
AcDb2dVertex
8
Layer01
10
518.076065
20
7.833365
30
0.0
0
VERTEX
100
AcDbVertex
100
AcDb2dVertex
8
Layer01
10
517.543072
20
7.95364
30
0.0
0
VERTEX
100
AcDbVertex
100
AcDb2dVertex
8
Layer01
10
517.010079
20
8.077223
30
0.0
0
VERTEX
100
AcDbVertex
100
AcDb2dVertex
8
Layer01
10
516.477022
20
8.18311
30
0.0
0
VERTEX
100
AcDbVertex
100
AcDb2dVertex
8
Layer01
10
515.944029
20
8.290745
30
0.0
0
VERTEX
100
AcDbVertex
100
AcDb2dVertex
8
Layer01
10
515.411036
20
8.400106
30
0.0
0
VERTEX
100
AcDbVertex
100
AcDb2dVertex
8
Layer01
10
514.878043
20
8.511154
30
0.0
0
VERTEX
100
AcDbVertex
100
AcDb2dVertex
8
Layer01
10
514.34505
20
8.623854
30
0.0
0
VERTEX
100
AcDbVertex
100
AcDb2dVertex
8
Layer01
10
513.812056
20
8.738169
30
0.0
0
VERTEX
100
AcDbVertex
100
AcDb2dVertex
8
Layer01
10
513.279063
20
8.854063
30
0.0
0
VERTEX
100
AcDbVertex
100
AcDb2dVertex
8
Layer01
10
512.74607
20
8.971499
30
0.0
0
VERTEX
100
AcDbVertex
100
AcDb2dVertex
8
Layer01
10
512.213077
20
9.090443
30
0.0
0
VERTEX
100
AcDbVertex
100
AcDb2dVertex
8
Layer01
10
511.680084
20
9.210861
30
0.0
0
VERTEX
100
AcDbVertex
100
AcDb2dVertex
8
Layer01
10
511.146995
20
9.332738
30
0.0
0
VERTEX
100
AcDbVertex
100
AcDb2dVertex
8
Layer01
10
510.614002
20
9.455998
30
0.0
0
VERTEX
100
AcDbVertex
100
AcDb2dVertex
8
Layer01
10
510.081009
20
9.58063
30
0.0
0
VERTEX
100
AcDbVertex
100
AcDb2dVertex
8
Layer01
10
509.548016
20
9.706601
30
0.0
0
VERTEX
100
AcDbVertex
100
AcDb2dVertex
8
Layer01
10
509.015023
20
9.833877
30
0.0
0
VERTEX
100
AcDbVertex
100
AcDb2dVertex
8
Layer01
10
508.48203
20
9.962426
30
0.0
0
VERTEX
100
AcDbVertex
100
AcDb2dVertex
8
Layer01
10
507.949037
20
10.092218
30
0.0
0
VERTEX
100
AcDbVertex
100
AcDb2dVertex
8
Layer01
10
507.416043
20
10.22322
30
0.0
0
VERTEX
100
AcDbVertex
100
AcDb2dVertex
8
Layer01
10
506.88305
20
10.355402
30
0.0
0
VERTEX
100
AcDbVertex
100
AcDb2dVertex
8
Layer01
10
506.350057
20
10.488733
30
0.0
0
VERTEX
100
AcDbVertex
100
AcDb2dVertex
8
Layer01
10
505.817001
20
10.623199
30
0.0
0
VERTEX
100
AcDbVertex
100
AcDb2dVertex
8
Layer01
10
505.284007
20
10.758739
30
0.0
0
VERTEX
100
AcDbVertex
100
AcDb2dVertex
8
Layer01
10
504.751014
20
10.895339
30
0.0
0
VERTEX
100
AcDbVertex
100
AcDb2dVertex
8
Layer01
10
504.218021
20
11.03297
30
0.0
0
VERTEX
100
AcDbVertex
100
AcDb2dVertex
8
Layer01
10
503.685028
20
11.171604
30
0.0
0
VERTEX
100
AcDbVertex
100
AcDb2dVertex
8
Layer01
10
503.152035
20
11.311213
30
0.0
0
VERTEX
100
AcDbVertex
100
AcDb2dVertex
8
Layer01
10
502.619042
20
11.451769
30
0.0
0
VERTEX
100
AcDbVertex
100
AcDb2dVertex
8
Layer01
10
502.086049
20
11.593244
30
0.0
0
VERTEX
100
AcDbVertex
100
AcDb2dVertex
8
Layer01
10
501.553055
20
11.735613
30
0.0
0
VERTEX
100
AcDbVertex
100
AcDb2dVertex
8
Layer01
10
501.020062
20
11.878848
30
0.0
0
VERTEX
100
AcDbVertex
100
AcDb2dVertex
8
Layer01
10
500.487006
20
12.022941
30
0.0
0
VERTEX
100
AcDbVertex
100
AcDb2dVertex
8
Layer01
10
499.954012
20
12.167831
30
0.0
0
VERTEX
100
AcDbVertex
100
AcDb2dVertex
8
Layer01
10
499.421019
20
12.31351
30
0.0
0
VERTEX
100
AcDbVertex
100
AcDb2dVertex
8
Layer01
10
498.888026
20
12.459953
30
0.0
0
VERTEX
100
AcDbVertex
100
AcDb2dVertex
8
Layer01
10
498.355033
20
12.607135
30
0.0
0
VERTEX
100
AcDbVertex
100
AcDb2dVertex
8
Layer01
10
497.82204
20
12.75503
30
0.0
0
VERTEX
100
AcDbVertex
100
AcDb2dVertex
8
Layer01
10
497.289047
20
12.903617
30
0.0
0
VERTEX
100
AcDbVertex
100
AcDb2dVertex
8
Layer01
10
496.756054
20
13.05287
30
0.0
0
VERTEX
100
AcDbVertex
100
AcDb2dVertex
8
Layer01
10
496.22306
20
13.202766
30
0.0
0
VERTEX
100
AcDbVertex
100
AcDb2dVertex
8
Layer01
10
495.690067
20
13.353283
30
0.0
0
VERTEX
100
AcDbVertex
100
AcDb2dVertex
8
Layer01
10
495.157011
20
13.504415
30
0.0
0
VERTEX
100
AcDbVertex
100
AcDb2dVertex
8
Layer01
10
494.624018
20
13.656104
30
0.0
0
VERTEX
100
AcDbVertex
100
AcDb2dVertex
8
Layer01
10
494.091024
20
13.808348
30
0.0
0
VERTEX
100
AcDbVertex
100
AcDb2dVertex
8
Layer01
10
493.558031
20
13.961125
30
0.0
0
VERTEX
100
AcDbVertex
100
AcDb2dVertex
8
Layer01
10
493.025038
20
14.114414
30
0.0
0
VERTEX
100
AcDbVertex
100
AcDb2dVertex
8
Layer01
10
492.492045
20
14.268196
30
0.0
0
VERTEX
100
AcDbVertex
100
AcDb2dVertex
8
Layer01
10
491.959052
20
14.422449
30
0.0
0
VERTEX
100
AcDbVertex
100
AcDb2dVertex
8
Layer01
10
491.426059
20
14.577154
30
0.0
0
VERTEX
100
AcDbVertex
100
AcDb2dVertex
8
Layer01
10
490.893066
20
14.732291
30
0.0
0
VERTEX
100
AcDbVertex
100
AcDb2dVertex
8
Layer01
10
490.360072
20
14.887841
30
0.0
0
VERTEX
100
AcDbVertex
100
AcDb2dVertex
8
Layer01
10
489.827016
20
15.043806
30
0.0
0
VERTEX
100
AcDbVertex
100
AcDb2dVertex
8
Layer01
10
489.294023
20
15.200127
30
0.0
0
VERTEX
100
AcDbVertex
100
AcDb2dVertex
8
Layer01
10
488.761029
20
15.356807
30
0.0
0
VERTEX
100
AcDbVertex
100
AcDb2dVertex
8
Layer01
10
488.228036
20
15.513825
30
0.0
0
VERTEX
100
AcDbVertex
100
AcDb2dVertex
8
Layer01
10
487.695043
20
15.671166
30
0.0
0
VERTEX
100
AcDbVertex
100
AcDb2dVertex
8
Layer01
10
487.16205
20
15.828812
30
0.0
0
VERTEX
100
AcDbVertex
100
AcDb2dVertex
8
Layer01
10
486.629057
20
15.986746
30
0.0
0
VERTEX
100
AcDbVertex
100
AcDb2dVertex
8
Layer01
10
486.096064
20
16.14495
30
0.0
0
VERTEX
100
AcDbVertex
100
AcDb2dVertex
8
Layer01
10
485.563071
20
16.30341
30
0.0
0
VERTEX
100
AcDbVertex
100
AcDb2dVertex
8
Layer01
10
485.030078
20
16.462108
30
0.0
0
VERTEX
100
AcDbVertex
100
AcDb2dVertex
8
Layer01
10
484.497021
20
16.621049
30
0.0
0
VERTEX
100
AcDbVertex
100
AcDb2dVertex
8
Layer01
10
483.964028
20
16.780179
30
0.0
0
VERTEX
100
AcDbVertex
100
AcDb2dVertex
8
Layer01
10
483.431035
20
16.939501
30
0.0
0
VERTEX
100
AcDbVertex
100
AcDb2dVertex
8
Layer01
10
482.898041
20
17.099
30
0.0
0
VERTEX
100
AcDbVertex
100
AcDb2dVertex
8
Layer01
10
482.365048
20
17.258662
30
0.0
0
VERTEX
100
AcDbVertex
100
AcDb2dVertex
8
Layer01
10
481.832055
20
17.418472
30
0.0
0
VERTEX
100
AcDbVertex
100
AcDb2dVertex
8
Layer01
10
481.299062
20
17.578417
30
0.0
0
VERTEX
100
AcDbVertex
100
AcDb2dVertex
8
Layer01
10
480.766069
20
17.738482
30
0.0
0
VERTEX
100
AcDbVertex
100
AcDb2dVertex
8
Layer01
10
480.233076
20
17.898655
30
0.0
0
VERTEX
100
AcDbVertex
100
AcDb2dVertex
8
Layer01
10
479.700083
20
18.058921
30
0.0
0
VERTEX
100
AcDbVertex
100
AcDb2dVertex
8
Layer01
10
479.166994
20
18.219296
30
0.0
0
VERTEX
100
AcDbVertex
100
AcDb2dVertex
8
Layer01
10
478.634001
20
18.379712
30
0.0
0
VERTEX
100
AcDbVertex
100
AcDb2dVertex
8
Layer01
10
478.101008
20
18.540184
30
0.0
0
VERTEX
100
AcDbVertex
100
AcDb2dVertex
8
Layer01
10
477.568015
20
18.7007
30
0.0
0
VERTEX
100
AcDbVertex
100
AcDb2dVertex
8
Layer01
10
477.035022
20
18.86125
30
0.0
0
VERTEX
100
AcDbVertex
100
AcDb2dVertex
8
Layer01
10
476.502028
20
19.021822
30
0.0
0
VERTEX
100
AcDbVertex
100
AcDb2dVertex
8
Layer01
10
475.969035
20
19.182405
30
0.0
0
VERTEX
100
AcDbVertex
100
AcDb2dVertex
8
Layer01
10
475.436042
20
19.342987
30
0.0
0
VERTEX
100
AcDbVertex
100
AcDb2dVertex
8
Layer01
10
474.903049
20
19.50356
30
0.0
0
VERTEX
100
AcDbVertex
100
AcDb2dVertex
8
Layer01
10
474.370056
20
19.664112
30
0.0
0
VERTEX
100
AcDbVertex
100
AcDb2dVertex
8
Layer01
10
473.836999
20
19.824653
30
0.0
0
VERTEX
100
AcDbVertex
100
AcDb2dVertex
8
Layer01
10
473.304006
20
19.985135
30
0.0
0
VERTEX
100
AcDbVertex
100
AcDb2dVertex
8
Layer01
10
472.771013
20
20.145567
30
0.0
0
VERTEX
100
AcDbVertex
100
AcDb2dVertex
8
Layer01
10
472.23802
20
20.305941
30
0.0
0
VERTEX
100
AcDbVertex
100
AcDb2dVertex
8
Layer01
10
471.705027
20
20.466247
30
0.0
0
VERTEX
100
AcDbVertex
100
AcDb2dVertex
8
Layer01
10
471.172034
20
20.626477
30
0.0
0
VERTEX
100
AcDbVertex
100
AcDb2dVertex
8
Layer01
10
470.63904
20
20.786622
30
0.0
0
VERTEX
100
AcDbVertex
100
AcDb2dVertex
8
Layer01
10
470.106047
20
20.946674
30
0.0
0
VERTEX
100
AcDbVertex
100
AcDb2dVertex
8
Layer01
10
469.573054
20
21.106625
30
0.0
0
VERTEX
100
AcDbVertex
100
AcDb2dVertex
8
Layer01
10
469.040061
20
21.266469
30
0.0
0
VERTEX
100
AcDbVertex
100
AcDb2dVertex
8
Layer01
10
468.507004
20
21.426215
30
0.0
0
VERTEX
100
AcDbVertex
100
AcDb2dVertex
8
Layer01
10
467.974011
20
21.58582
30
0.0
0
VERTEX
100
AcDbVertex
100
AcDb2dVertex
8
Layer01
10
467.441018
20
21.745294
30
0.0
0
VERTEX
100
AcDbVertex
100
AcDb2dVertex
8
Layer01
10
466.908025
20
21.904631
30
0.0
0
VERTEX
100
AcDbVertex
100
AcDb2dVertex
8
Layer01
10
466.375032
20
22.063824
30
0.0
0
VERTEX
100
AcDbVertex
100
AcDb2dVertex
8
Layer01
10
465.842039
20
22.222867
30
0.0
0
VERTEX
100
AcDbVertex
100
AcDb2dVertex
8
Layer01
10
465.309045
20
22.381754
30
0.0
0
VERTEX
100
AcDbVertex
100
AcDb2dVertex
8
Layer01
10
464.776052
20
22.540479
30
0.0
0
VERTEX
100
AcDbVertex
100
AcDb2dVertex
8
Layer01
10
464.243059
20
22.699035
30
0.0
0
VERTEX
100
AcDbVertex
100
AcDb2dVertex
8
Layer01
10
463.710066
20
22.857419
30
0.0
0
VERTEX
100
AcDbVertex
100
AcDb2dVertex
8
Layer01
10
463.177009
20
23.015642
30
0.0
0
VERTEX
100
AcDbVertex
100
AcDb2dVertex
8
Layer01
10
462.644016
20
23.173662
30
0.0
0
VERTEX
100
AcDbVertex
100
AcDb2dVertex
8
Layer01
10
462.111023
20
23.331494
30
0.0
0
VERTEX
100
AcDbVertex
100
AcDb2dVertex
8
Layer01
10
461.57803
20
23.489132
30
0.0
0
VERTEX
100
AcDbVertex
100
AcDb2dVertex
8
Layer01
10
461.045037
20
23.646573
30
0.0
0
VERTEX
100
AcDbVertex
100
AcDb2dVertex
8
Layer01
10
460.512044
20
23.803812
30
0.0
0
VERTEX
100
AcDbVertex
100
AcDb2dVertex
8
Layer01
10
459.979051
20
23.960846
30
0.0
0
VERTEX
100
AcDbVertex
100
AcDb2dVertex
8
Layer01
10
459.446057
20
24.117669
30
0.0
0
VERTEX
100
AcDbVertex
100
AcDb2dVertex
8
Layer01
10
458.913064
20
24.27428
30
0.0
0
VERTEX
100
AcDbVertex
100
AcDb2dVertex
8
Layer01
10
458.380071
20
24.430674
30
0.0
0
VERTEX
100
AcDbVertex
100
AcDb2dVertex
8
Layer01
10
457.847014
20
24.586868
30
0.0
0
VERTEX
100
AcDbVertex
100
AcDb2dVertex
8
Layer01
10
457.314021
20
24.74282
30
0.0
0
VERTEX
100
AcDbVertex
100
AcDb2dVertex
8
Layer01
10
456.781028
20
24.898546
30
0.0
0
VERTEX
100
AcDbVertex
100
AcDb2dVertex
8
Layer01
10
456.248035
20
25.054043
30
0.0
0
VERTEX
100
AcDbVertex
100
AcDb2dVertex
8
Layer01
10
455.715042
20
25.209308
30
0.0
0
VERTEX
100
AcDbVertex
100
AcDb2dVertex
8
Layer01
10
455.182049
20
25.364339
30
0.0
0
VERTEX
100
AcDbVertex
100
AcDb2dVertex
8
Layer01
10
454.649056
20
25.519133
30
0.0
0
VERTEX
100
AcDbVertex
100
AcDb2dVertex
8
Layer01
10
454.116063
20
25.673689
30
0.0
0
VERTEX
100
AcDbVertex
100
AcDb2dVertex
8
Layer01
10
453.583069
20
25.828003
30
0.0
0
VERTEX
100
AcDbVertex
100
AcDb2dVertex
8
Layer01
10
453.050076
20
25.982076
30
0.0
0
VERTEX
100
AcDbVertex
100
AcDb2dVertex
8
Layer01
10
452.51702
20
26.135919
30
0.0
0
VERTEX
100
AcDbVertex
100
AcDb2dVertex
8
Layer01
10
451.984026
20
26.289499
30
0.0
0
VERTEX
100
AcDbVertex
100
AcDb2dVertex
8
Layer01
10
451.451033
20
26.442833
30
0.0
0
VERTEX
100
AcDbVertex
100
AcDb2dVertex
8
Layer01
10
450.91804
20
26.59592
30
0.0
0
VERTEX
100
AcDbVertex
100
AcDb2dVertex
8
Layer01
10
450.385047
20
26.748759
30
0.0
0
VERTEX
100
AcDbVertex
100
AcDb2dVertex
8
Layer01
10
449.852054
20
26.90135
30
0.0
0
VERTEX
100
AcDbVertex
100
AcDb2dVertex
8
Layer01
10
449.319061
20
27.053692
30
0.0
0
VERTEX
100
AcDbVertex
100
AcDb2dVertex
8
Layer01
10
448.786068
20
27.205786
30
0.0
0
VERTEX
100
AcDbVertex
100
AcDb2dVertex
8
Layer01
10
448.253074
20
27.35763
30
0.0
0
VERTEX
100
AcDbVertex
100
AcDb2dVertex
8
Layer01
10
447.720081
20
27.509226
30
0.0
0
VERTEX
100
AcDbVertex
100
AcDb2dVertex
8
Layer01
10
447.186993
20
27.660604
30
0.0
0
VERTEX
100
AcDbVertex
100
AcDb2dVertex
8
Layer01
10
446.654
20
27.811706
30
0.0
0
VERTEX
100
AcDbVertex
100
AcDb2dVertex
8
Layer01
10
446.121007
20
27.962559
30
0.0
0
VERTEX
100
AcDbVertex
100
AcDb2dVertex
8
Layer01
10
445.588013
20
28.113164
30
0.0
0
VERTEX
100
AcDbVertex
100
AcDb2dVertex
8
Layer01
10
445.05502
20
28.263521
30
0.0
0
VERTEX
100
AcDbVertex
100
AcDb2dVertex
8
Layer01
10
444.522027
20
28.41363
30
0.0
0
VERTEX
100
AcDbVertex
100
AcDb2dVertex
8
Layer01
10
443.989034
20
28.563491
30
0.0
0
VERTEX
100
AcDbVertex
100
AcDb2dVertex
8
Layer01
10
443.456041
20
28.713107
30
0.0
0
VERTEX
100
AcDbVertex
100
AcDb2dVertex
8
Layer01
10
442.923048
20
28.862476
30
0.0
0
VERTEX
100
AcDbVertex
100
AcDb2dVertex
8
Layer01
10
442.390055
20
29.011601
30
0.0
0
VERTEX
100
AcDbVertex
100
AcDb2dVertex
8
Layer01
10
441.856998
20
29.160497
30
0.0
0
VERTEX
100
AcDbVertex
100
AcDb2dVertex
8
Layer01
10
441.324005
20
29.309132
30
0.0
0
VERTEX
100
AcDbVertex
100
AcDb2dVertex
8
Layer01
10
440.791012
20
29.457528
30
0.0
0
VERTEX
100
AcDbVertex
100
AcDb2dVertex
8
Layer01
10
440.258019
20
29.605684
30
0.0
0
VERTEX
100
AcDbVertex
100
AcDb2dVertex
8
Layer01
10
439.725025
20
29.753603
30
0.0
0
VERTEX
100
AcDbVertex
100
AcDb2dVertex
8
Layer01
10
439.192032
20
29.901287
30
0.0
0
VERTEX
100
AcDbVertex
100
AcDb2dVertex
8
Layer01
10
438.659039
20
30.048738
30
0.0
0
VERTEX
100
AcDbVertex
100
AcDb2dVertex
8
Layer01
10
438.126046
20
30.195959
30
0.0
0
VERTEX
100
AcDbVertex
100
AcDb2dVertex
8
Layer01
10
437.593053
20
30.34295
30
0.0
0
VERTEX
100
AcDbVertex
100
AcDb2dVertex
8
Layer01
10
437.06006
20
30.489716
30
0.0
0
VERTEX
100
AcDbVertex
100
AcDb2dVertex
8
Layer01
10
436.527003
20
30.63647
30
0.0
0
VERTEX
100
AcDbVertex
100
AcDb2dVertex
8
Layer01
10
435.99401
20
30.782972
30
0.0
0
VERTEX
100
AcDbVertex
100
AcDb2dVertex
8
Layer01
10
435.461017
20
30.929225
30
0.0
0
VERTEX
100
AcDbVertex
100
AcDb2dVertex
8
Layer01
10
434.928024
20
31.075221
30
0.0
0
VERTEX
100
AcDbVertex
100
AcDb2dVertex
8
Layer01
10
434.39503
20
31.220949
30
0.0
0
VERTEX
100
AcDbVertex
100
AcDb2dVertex
8
Layer01
10
433.862037
20
31.366405
30
0.0
0
VERTEX
100
AcDbVertex
100
AcDb2dVertex
8
Layer01
10
433.329044
20
31.511585
30
0.0
0
VERTEX
100
AcDbVertex
100
AcDb2dVertex
8
Layer01
10
432.796051
20
31.65649
30
0.0
0
VERTEX
100
AcDbVertex
100
AcDb2dVertex
8
Layer01
10
432.263058
20
31.801124
30
0.0
0
VERTEX
100
AcDbVertex
100
AcDb2dVertex
8
Layer01
10
431.730065
20
31.945497
30
0.0
0
VERTEX
100
AcDbVertex
100
AcDb2dVertex
8
Layer01
10
431.197008
20
32.088856
30
0.0
0
VERTEX
100
AcDbVertex
100
AcDb2dVertex
8
Layer01
10
430.664015
20
32.232031
30
0.0
0
VERTEX
100
AcDbVertex
100
AcDb2dVertex
8
Layer01
10
430.131022
20
32.375124
30
0.0
0
VERTEX
100
AcDbVertex
100
AcDb2dVertex
8
Layer01
10
429.598029
20
32.518221
30
0.0
0
VERTEX
100
AcDbVertex
100
AcDb2dVertex
8
Layer01
10
429.065036
20
32.661408
30
0.0
0
VERTEX
100
AcDbVertex
100
AcDb2dVertex
8
Layer01
10
428.532042
20
32.804771
30
0.0
0
VERTEX
100
AcDbVertex
100
AcDb2dVertex
8
Layer01
10
427.999049
20
32.948393
30
0.0
0
VERTEX
100
AcDbVertex
100
AcDb2dVertex
8
Layer01
10
427.466056
20
33.092353
30
0.0
0
VERTEX
100
AcDbVertex
100
AcDb2dVertex
8
Layer01
10
426.933063
20
33.23672
30
0.0
0
VERTEX
100
AcDbVertex
100
AcDb2dVertex
8
Layer01
10
426.40007
20
33.381558
30
0.0
0
VERTEX
100
AcDbVertex
100
AcDb2dVertex
8
Layer01
10
425.867013
20
33.528111
30
0.0
0
VERTEX
100
AcDbVertex
100
AcDb2dVertex
8
Layer01
10
425.33402
20
33.675122
30
0.0
0
VERTEX
100
AcDbVertex
100
AcDb2dVertex
8
Layer01
10
424.801027
20
33.822551
30
0.0
0
VERTEX
100
AcDbVertex
100
AcDb2dVertex
8
Layer01
10
424.268034
20
33.970331
30
0.0
0
VERTEX
100
AcDbVertex
100
AcDb2dVertex
8
Layer01
10
423.735041
20
34.118389
30
0.0
0
VERTEX
100
AcDbVertex
100
AcDb2dVertex
8
Layer01
10
423.202048
20
34.266647
30
0.0
0
VERTEX
100
AcDbVertex
100
AcDb2dVertex
8
Layer01
10
422.669054
20
34.415024
30
0.0
0
VERTEX
100
AcDbVertex
100
AcDb2dVertex
8
Layer01
10
422.136061
20
34.563437
30
0.0
0
VERTEX
100
AcDbVertex
100
AcDb2dVertex
8
Layer01
10
421.603068
20
34.711804
30
0.0
0
VERTEX
100
AcDbVertex
100
AcDb2dVertex
8
Layer01
10
421.070075
20
34.860045
30
0.0
0
VERTEX
100
AcDbVertex
100
AcDb2dVertex
8
Layer01
10
420.537018
20
35.007331
30
0.0
0
VERTEX
100
AcDbVertex
100
AcDb2dVertex
8
Layer01
10
420.004025
20
35.154384
30
0.0
0
VERTEX
100
AcDbVertex
100
AcDb2dVertex
8
Layer01
10
419.471032
20
35.301216
30
0.0
0
VERTEX
100
AcDbVertex
100
AcDb2dVertex
8
Layer01
10
418.938039
20
35.447823
30
0.0
0
VERTEX
100
AcDbVertex
100
AcDb2dVertex
8
Layer01
10
418.405046
20
35.594207
30
0.0
0
VERTEX
100
AcDbVertex
100
AcDb2dVertex
8
Layer01
10
417.872053
20
35.740371
30
0.0
0
VERTEX
100
AcDbVertex
100
AcDb2dVertex
8
Layer01
10
417.339059
20
35.886324
30
0.0
0
VERTEX
100
AcDbVertex
100
AcDb2dVertex
8
Layer01
10
416.806066
20
36.032076
30
0.0
0
VERTEX
100
AcDbVertex
100
AcDb2dVertex
8
Layer01
10
416.273073
20
36.177638
30
0.0
0
VERTEX
100
AcDbVertex
100
AcDb2dVertex
8
Layer01
10
415.74008
20
36.323022
30
0.0
0
VERTEX
100
AcDbVertex
100
AcDb2dVertex
8
Layer01
10
415.206992
20
36.468456
30
0.0
0
VERTEX
100
AcDbVertex
100
AcDb2dVertex
8
Layer01
10
414.673998
20
36.6137
30
0.0
0
VERTEX
100
AcDbVertex
100
AcDb2dVertex
8
Layer01
10
414.141005
20
36.758777
30
0.0
0
VERTEX
100
AcDbVertex
100
AcDb2dVertex
8
Layer01
10
413.608012
20
36.903687
30
0.0
0
VERTEX
100
AcDbVertex
100
AcDb2dVertex
8
Layer01
10
413.075019
20
37.048429
30
0.0
0
VERTEX
100
AcDbVertex
100
AcDb2dVertex
8
Layer01
10
412.542026
20
37.193003
30
0.0
0
VERTEX
100
AcDbVertex
100
AcDb2dVertex
8
Layer01
10
412.009033
20
37.337407
30
0.0
0
VERTEX
100
AcDbVertex
100
AcDb2dVertex
8
Layer01
10
411.47604
20
37.48164
30
0.0
0
VERTEX
100
AcDbVertex
100
AcDb2dVertex
8
Layer01
10
410.943047
20
37.625702
30
0.0
0
VERTEX
100
AcDbVertex
100
AcDb2dVertex
8
Layer01
10
410.410053
20
37.769591
30
0.0
0
VERTEX
100
AcDbVertex
100
AcDb2dVertex
8
Layer01
10
409.876997
20
37.913323
30
0.0
0
VERTEX
100
AcDbVertex
100
AcDb2dVertex
8
Layer01
10
409.344004
20
38.056863
30
0.0
0
VERTEX
100
AcDbVertex
100
AcDb2dVertex
8
Layer01
10
408.81101
20
38.20023
30
0.0
0
VERTEX
100
AcDbVertex
100
AcDb2dVertex
8
Layer01
10
408.278017
20
38.343422
30
0.0
0
VERTEX
100
AcDbVertex
100
AcDb2dVertex
8
Layer01
10
407.745024
20
38.486439
30
0.0
0
VERTEX
100
AcDbVertex
100
AcDb2dVertex
8
Layer01
10
407.212031
20
38.629281
30
0.0
0
VERTEX
100
AcDbVertex
100
AcDb2dVertex
8
Layer01
10
406.679038
20
38.771946
30
0.0
0
VERTEX
100
AcDbVertex
100
AcDb2dVertex
8
Layer01
10
406.146045
20
38.914436
30
0.0
0
VERTEX
100
AcDbVertex
100
AcDb2dVertex
8
Layer01
10
405.613052
20
39.056748
30
0.0
0
VERTEX
100
AcDbVertex
100
AcDb2dVertex
8
Layer01
10
405.080058
20
39.198883
30
0.0
0
VERTEX
100
AcDbVertex
100
AcDb2dVertex
8
Layer01
10
404.547002
20
39.340861
30
0.0
0
VERTEX
100
AcDbVertex
100
AcDb2dVertex
8
Layer01
10
404.014009
20
39.482643
30
0.0
0
VERTEX
100
AcDbVertex
100
AcDb2dVertex
8
Layer01
10
403.481016
20
39.624246
30
0.0
0
VERTEX
100
AcDbVertex
100
AcDb2dVertex
8
Layer01
10
402.948022
20
39.765669
30
0.0
0
VERTEX
100
AcDbVertex
100
AcDb2dVertex
8
Layer01
10
402.415029
20
39.90691
30
0.0
0
VERTEX
100
AcDbVertex
100
AcDb2dVertex
8
Layer01
10
401.882036
20
40.04797
30
0.0
0
VERTEX
100
AcDbVertex
100
AcDb2dVertex
8
Layer01
10
401.349043
20
40.188846
30
0.0
0
VERTEX
100
AcDbVertex
100
AcDb2dVertex
8
Layer01
10
400.81605
20
40.32954
30
0.0
0
VERTEX
100
AcDbVertex
100
AcDb2dVertex
8
Layer01
10
400.283057
20
40.470049
30
0.0
0
VERTEX
100
AcDbVertex
100
AcDb2dVertex
8
Layer01
10
399.750064
20
40.610373
30
0.0
0
VERTEX
100
AcDbVertex
100
AcDb2dVertex
8
Layer01
10
399.217007
20
40.750524
30
0.0
0
VERTEX
100
AcDbVertex
100
AcDb2dVertex
8
Layer01
10
398.684014
20
40.890472
30
0.0
0
VERTEX
100
AcDbVertex
100
AcDb2dVertex
8
Layer01
10
398.151021
20
41.030234
30
0.0
0
VERTEX
100
AcDbVertex
100
AcDb2dVertex
8
Layer01
10
397.618027
20
41.169809
30
0.0
0
VERTEX
100
AcDbVertex
100
AcDb2dVertex
8
Layer01
10
397.085034
20
41.309196
30
0.0
0
VERTEX
100
AcDbVertex
100
AcDb2dVertex
8
Layer01
10
396.552041
20
41.448396
30
0.0
0
VERTEX
100
AcDbVertex
100
AcDb2dVertex
8
Layer01
10
396.019048
20
41.587408
30
0.0
0
VERTEX
100
AcDbVertex
100
AcDb2dVertex
8
Layer01
10
395.486055
20
41.726232
30
0.0
0
VERTEX
100
AcDbVertex
100
AcDb2dVertex
8
Layer01
10
394.953062
20
41.864867
30
0.0
0
VERTEX
100
AcDbVertex
100
AcDb2dVertex
8
Layer01
10
394.420069
20
42.003314
30
0.0
0
VERTEX
100
AcDbVertex
100
AcDb2dVertex
8
Layer01
10
393.887012
20
42.14159
30
0.0
0
VERTEX
100
AcDbVertex
100
AcDb2dVertex
8
Layer01
10
393.354019
20
42.27966
30
0.0
0
VERTEX
100
AcDbVertex
100
AcDb2dVertex
8
Layer01
10
392.821026
20
42.41754
30
0.0
0
VERTEX
100
AcDbVertex
100
AcDb2dVertex
8
Layer01
10
392.288033
20
42.555229
30
0.0
0
VERTEX
100
AcDbVertex
100
AcDb2dVertex
8
Layer01
10
391.755039
20
42.692727
30
0.0
0
VERTEX
100
AcDbVertex
100
AcDb2dVertex
8
Layer01
10
391.222046
20
42.830034
30
0.0
0
VERTEX
100
AcDbVertex
100
AcDb2dVertex
8
Layer01
10
390.689053
20
42.967148
30
0.0
0
VERTEX
100
AcDbVertex
100
AcDb2dVertex
8
Layer01
10
390.15606
20
43.10407
30
0.0
0
VERTEX
100
AcDbVertex
100
AcDb2dVertex
8
Layer01
10
389.623067
20
43.240799
30
0.0
0
VERTEX
100
AcDbVertex
100
AcDb2dVertex
8
Layer01
10
389.090074
20
43.377333
30
0.0
0
VERTEX
100
AcDbVertex
100
AcDb2dVertex
8
Layer01
10
388.557017
20
43.513689
30
0.0
0
VERTEX
100
AcDbVertex
100
AcDb2dVertex
8
Layer01
10
388.024024
20
43.649834
30
0.0
0
VERTEX
100
AcDbVertex
100
AcDb2dVertex
8
Layer01
10
387.491031
20
43.785784
30
0.0
0
VERTEX
100
AcDbVertex
100
AcDb2dVertex
8
Layer01
10
386.958038
20
43.921539
30
0.0
0
VERTEX
100
AcDbVertex
100
AcDb2dVertex
8
Layer01
10
386.425044
20
44.057098
30
0.0
0
VERTEX
100
AcDbVertex
100
AcDb2dVertex
8
Layer01
10
385.892051
20
44.192462
30
0.0
0
VERTEX
100
AcDbVertex
100
AcDb2dVertex
8
Layer01
10
385.359058
20
44.327629
30
0.0
0
VERTEX
100
AcDbVertex
100
AcDb2dVertex
8
Layer01
10
384.826065
20
44.4626
30
0.0
0
VERTEX
100
AcDbVertex
100
AcDb2dVertex
8
Layer01
10
384.293072
20
44.597375
30
0.0
0
VERTEX
100
AcDbVertex
100
AcDb2dVertex
8
Layer01
10
383.760079
20
44.731952
30
0.0
0
VERTEX
100
AcDbVertex
100
AcDb2dVertex
8
Layer01
10
383.227022
20
44.866358
30
0.0
0
VERTEX
100
AcDbVertex
100
AcDb2dVertex
8
Layer01
10
382.694029
20
45.00055
30
0.0
0
VERTEX
100
AcDbVertex
100
AcDb2dVertex
8
Layer01
10
382.161036
20
45.134543
30
0.0
0
VERTEX
100
AcDbVertex
100
AcDb2dVertex
8
Layer01
10
381.628043
20
45.268335
30
0.0
0
VERTEX
100
AcDbVertex
100
AcDb2dVertex
8
Layer01
10
381.09505
20
45.401927
30
0.0
0
VERTEX
100
AcDbVertex
100
AcDb2dVertex
8
Layer01
10
380.562056
20
45.535316
30
0.0
0
VERTEX
100
AcDbVertex
100
AcDb2dVertex
8
Layer01
10
380.029063
20
45.668504
30
0.0
0
VERTEX
100
AcDbVertex
100
AcDb2dVertex
8
Layer01
10
379.49607
20
45.801488
30
0.0
0
VERTEX
100
AcDbVertex
100
AcDb2dVertex
8
Layer01
10
378.963077
20
45.93427
30
0.0
0
VERTEX
100
AcDbVertex
100
AcDb2dVertex
8
Layer01
10
378.430084
20
46.066849
30
0.0
0
VERTEX
100
AcDbVertex
100
AcDb2dVertex
8
Layer01
10
377.896995
20
46.199209
30
0.0
0
VERTEX
100
AcDbVertex
100
AcDb2dVertex
8
Layer01
10
377.364002
20
46.331346
30
0.0
0
VERTEX
100
AcDbVertex
100
AcDb2dVertex
8
Layer01
10
376.831009
20
46.463289
30
0.0
0
VERTEX
100
AcDbVertex
100
AcDb2dVertex
8
Layer01
10
376.298016
20
46.595041
30
0.0
0
VERTEX
100
AcDbVertex
100
AcDb2dVertex
8
Layer01
10
375.765023
20
46.726607
30
0.0
0
VERTEX
100
AcDbVertex
100
AcDb2dVertex
8
Layer01
10
375.23203
20
46.857989
30
0.0
0
VERTEX
100
AcDbVertex
100
AcDb2dVertex
8
Layer01
10
374.699037
20
46.989193
30
0.0
0
VERTEX
100
AcDbVertex
100
AcDb2dVertex
8
Layer01
10
374.166043
20
47.120222
30
0.0
0
VERTEX
100
AcDbVertex
100
AcDb2dVertex
8
Layer01
10
373.63305
20
47.251079
30
0.0
0
VERTEX
100
AcDbVertex
100
AcDb2dVertex
8
Layer01
10
373.100057
20
47.381767
30
0.0
0
VERTEX
100
AcDbVertex
100
AcDb2dVertex
8
Layer01
10
372.567001
20
47.512366
30
0.0
0
VERTEX
100
AcDbVertex
100
AcDb2dVertex
8
Layer01
10
372.034007
20
47.642779
30
0.0
0
VERTEX
100
AcDbVertex
100
AcDb2dVertex
8
Layer01
10
371.501014
20
47.773019
30
0.0
0
VERTEX
100
AcDbVertex
100
AcDb2dVertex
8
Layer01
10
370.968021
20
47.90308
30
0.0
0
VERTEX
100
AcDbVertex
100
AcDb2dVertex
8
Layer01
10
370.435028
20
48.03296
30
0.0
0
VERTEX
100
AcDbVertex
100
AcDb2dVertex
8
Layer01
10
369.902035
20
48.162653
30
0.0
0
VERTEX
100
AcDbVertex
100
AcDb2dVertex
8
Layer01
10
369.369042
20
48.292155
30
0.0
0
VERTEX
100
AcDbVertex
100
AcDb2dVertex
8
Layer01
10
368.836049
20
48.42146
30
0.0
0
VERTEX
100
AcDbVertex
100
AcDb2dVertex
8
Layer01
10
368.303055
20
48.550564
30
0.0
0
VERTEX
100
AcDbVertex
100
AcDb2dVertex
8
Layer01
10
367.770062
20
48.679461
30
0.0
0
VERTEX
100
AcDbVertex
100
AcDb2dVertex
8
Layer01
10
367.237006
20
48.808122
30
0.0
0
VERTEX
100
AcDbVertex
100
AcDb2dVertex
8
Layer01
10
366.704012
20
48.936555
30
0.0
0
VERTEX
100
AcDbVertex
100
AcDb2dVertex
8
Layer01
10
366.171019
20
49.064776
30
0.0
0
VERTEX
100
AcDbVertex
100
AcDb2dVertex
8
Layer01
10
365.638026
20
49.192785
30
0.0
0
VERTEX
100
AcDbVertex
100
AcDb2dVertex
8
Layer01
10
365.105033
20
49.32058
30
0.0
0
VERTEX
100
AcDbVertex
100
AcDb2dVertex
8
Layer01
10
364.57204
20
49.448163
30
0.0
0
VERTEX
100
AcDbVertex
100
AcDb2dVertex
8
Layer01
10
364.039047
20
49.575533
30
0.0
0
VERTEX
100
AcDbVertex
100
AcDb2dVertex
8
Layer01
10
363.506054
20
49.70269
30
0.0
0
VERTEX
100
AcDbVertex
100
AcDb2dVertex
8
Layer01
10
362.97306
20
49.829635
30
0.0
0
VERTEX
100
AcDbVertex
100
AcDb2dVertex
8
Layer01
10
362.440067
20
49.956368
30
0.0
0
VERTEX
100
AcDbVertex
100
AcDb2dVertex
8
Layer01
10
361.907011
20
50.082916
30
0.0
0
VERTEX
100
AcDbVertex
100
AcDb2dVertex
8
Layer01
10
361.374018
20
50.209237
30
0.0
0
VERTEX
100
AcDbVertex
100
AcDb2dVertex
8
Layer01
10
360.841024
20
50.335346
30
0.0
0
VERTEX
100
AcDbVertex
100
AcDb2dVertex
8
Layer01
10
360.308031
20
50.461242
30
0.0
0
VERTEX
100
AcDbVertex
100
AcDb2dVertex
8
Layer01
10
359.775038
20
50.586924
30
0.0
0
VERTEX
100
AcDbVertex
100
AcDb2dVertex
8
Layer01
10
359.242045
20
50.712392
30
0.0
0
VERTEX
100
AcDbVertex
100
AcDb2dVertex
8
Layer01
10
358.709052
20
50.837646
30
0.0
0
VERTEX
100
AcDbVertex
100
AcDb2dVertex
8
Layer01
10
358.176059
20
50.962685
30
0.0
0
VERTEX
100
AcDbVertex
100
AcDb2dVertex
8
Layer01
10
357.643066
20
51.087508
30
0.0
0
VERTEX
100
AcDbVertex
100
AcDb2dVertex
8
Layer01
10
357.110072
20
51.212115
30
0.0
0
VERTEX
100
AcDbVertex
100
AcDb2dVertex
8
Layer01
10
356.577016
20
51.336521
30
0.0
0
VERTEX
100
AcDbVertex
100
AcDb2dVertex
8
Layer01
10
356.044023
20
51.460695
30
0.0
0
VERTEX
100
AcDbVertex
100
AcDb2dVertex
8
Layer01
10
355.511029
20
51.584652
30
0.0
0
VERTEX
100
AcDbVertex
100
AcDb2dVertex
8
Layer01
10
354.978036
20
51.70839
30
0.0
0
VERTEX
100
AcDbVertex
100
AcDb2dVertex
8
Layer01
10
354.445043
20
51.831911
30
0.0
0
VERTEX
100
AcDbVertex
100
AcDb2dVertex
8
Layer01
10
353.91205
20
51.955212
30
0.0
0
VERTEX
100
AcDbVertex
100
AcDb2dVertex
8
Layer01
10
353.379057
20
52.078295
30
0.0
0
VERTEX
100
AcDbVertex
100
AcDb2dVertex
8
Layer01
10
352.846064
20
52.201158
30
0.0
0
VERTEX
100
AcDbVertex
100
AcDb2dVertex
8
Layer01
10
352.313071
20
52.3238
30
0.0
0
VERTEX
100
AcDbVertex
100
AcDb2dVertex
8
Layer01
10
351.780078
20
52.446223
30
0.0
0
VERTEX
100
AcDbVertex
100
AcDb2dVertex
8
Layer01
10
351.247021
20
52.568438
30
0.0
0
VERTEX
100
AcDbVertex
100
AcDb2dVertex
8
Layer01
10
350.714028
20
52.690417
30
0.0
0
VERTEX
100
AcDbVertex
100
AcDb2dVertex
8
Layer01
10
350.181035
20
52.812175
30
0.0
0
VERTEX
100
AcDbVertex
100
AcDb2dVertex
8
Layer01
10
349.648041
20
52.933711
30
0.0
0
VERTEX
100
AcDbVertex
100
AcDb2dVertex
8
Layer01
10
349.115048
20
53.055026
30
0.0
0
VERTEX
100
AcDbVertex
100
AcDb2dVertex
8
Layer01
10
348.582055
20
53.176118
30
0.0
0
VERTEX
100
AcDbVertex
100
AcDb2dVertex
8
Layer01
10
348.049062
20
53.296989
30
0.0
0
VERTEX
100
AcDbVertex
100
AcDb2dVertex
8
Layer01
10
347.516069
20
53.417636
30
0.0
0
VERTEX
100
AcDbVertex
100
AcDb2dVertex
8
Layer01
10
346.983076
20
53.538062
30
0.0
0
VERTEX
100
AcDbVertex
100
AcDb2dVertex
8
Layer01
10
346.450083
20
53.658264
30
0.0
0
VERTEX
100
AcDbVertex
100
AcDb2dVertex
8
Layer01
10
345.916994
20
53.778266
30
0.0
0
VERTEX
100
AcDbVertex
100
AcDb2dVertex
8
Layer01
10
345.384001
20
53.898023
30
0.0
0
VERTEX
100
AcDbVertex
100
AcDb2dVertex
8
Layer01
10
344.851008
20
54.017556
30
0.0
0
VERTEX
100
AcDbVertex
100
AcDb2dVertex
8
Layer01
10
344.318015
20
54.136865
30
0.0
0
VERTEX
100
AcDbVertex
100
AcDb2dVertex
8
Layer01
10
343.785022
20
54.255949
30
0.0
0
VERTEX
100
AcDbVertex
100
AcDb2dVertex
8
Layer01
10
343.252028
20
54.374807
30
0.0
0
VERTEX
100
AcDbVertex
100
AcDb2dVertex
8
Layer01
10
342.719035
20
54.49344
30
0.0
0
VERTEX
100
AcDbVertex
100
AcDb2dVertex
8
Layer01
10
342.186042
20
54.611847
30
0.0
0
VERTEX
100
AcDbVertex
100
AcDb2dVertex
8
Layer01
10
341.653049
20
54.730027
30
0.0
0
VERTEX
100
AcDbVertex
100
AcDb2dVertex
8
Layer01
10
341.120056
20
54.84798
30
0.0
0
VERTEX
100
AcDbVertex
100
AcDb2dVertex
8
Layer01
10
340.586999
20
54.965719
30
0.0
0
VERTEX
100
AcDbVertex
100
AcDb2dVertex
8
Layer01
10
340.054006
20
55.083216
30
0.0
0
VERTEX
100
AcDbVertex
100
AcDb2dVertex
8
Layer01
10
339.521013
20
55.200485
30
0.0
0
VERTEX
100
AcDbVertex
100
AcDb2dVertex
8
Layer01
10
338.98802
20
55.317524
30
0.0
0
VERTEX
100
AcDbVertex
100
AcDb2dVertex
8
Layer01
10
338.455027
20
55.434335
30
0.0
0
VERTEX
100
AcDbVertex
100
AcDb2dVertex
8
Layer01
10
337.922034
20
55.550915
30
0.0
0
VERTEX
100
AcDbVertex
100
AcDb2dVertex
8
Layer01
10
337.38904
20
55.667265
30
0.0
0
VERTEX
100
AcDbVertex
100
AcDb2dVertex
8
Layer01
10
336.856047
20
55.783384
30
0.0
0
VERTEX
100
AcDbVertex
100
AcDb2dVertex
8
Layer01
10
336.323054
20
55.899272
30
0.0
0
VERTEX
100
AcDbVertex
100
AcDb2dVertex
8
Layer01
10
335.790061
20
56.014929
30
0.0
0
VERTEX
100
AcDbVertex
100
AcDb2dVertex
8
Layer01
10
335.257004
20
56.130366
30
0.0
0
VERTEX
100
AcDbVertex
100
AcDb2dVertex
8
Layer01
10
334.724011
20
56.245557
30
0.0
0
VERTEX
100
AcDbVertex
100
AcDb2dVertex
8
Layer01
10
334.191018
20
56.360515
30
0.0
0
VERTEX
100
AcDbVertex
100
AcDb2dVertex
8
Layer01
10
333.658025
20
56.475241
30
0.0
0
VERTEX
100
AcDbVertex
100
AcDb2dVertex
8
Layer01
10
333.125032
20
56.589733
30
0.0
0
VERTEX
100
AcDbVertex
100
AcDb2dVertex
8
Layer01
10
332.592039
20
56.703992
30
0.0
0
VERTEX
100
AcDbVertex
100
AcDb2dVertex
8
Layer01
10
332.059045
20
56.818018
30
0.0
0
VERTEX
100
AcDbVertex
100
AcDb2dVertex
8
Layer01
10
331.526052
20
56.93181
30
0.0
0
VERTEX
100
AcDbVertex
100
AcDb2dVertex
8
Layer01
10
330.993059
20
57.045369
30
0.0
0
VERTEX
100
AcDbVertex
100
AcDb2dVertex
8
Layer01
10
330.460066
20
57.158693
30
0.0
0
VERTEX
100
AcDbVertex
100
AcDb2dVertex
8
Layer01
10
329.927009
20
57.271788
30
0.0
0
VERTEX
100
AcDbVertex
100
AcDb2dVertex
8
Layer01
10
329.394016
20
57.384635
30
0.0
0
VERTEX
100
AcDbVertex
100
AcDb2dVertex
8
Layer01
10
328.861023
20
57.497249
30
0.0
0
VERTEX
100
AcDbVertex
100
AcDb2dVertex
8
Layer01
10
328.32803
20
57.609629
30
0.0
0
VERTEX
100
AcDbVertex
100
AcDb2dVertex
8
Layer01
10
327.795037
20
57.721776
30
0.0
0
VERTEX
100
AcDbVertex
100
AcDb2dVertex
8
Layer01
10
327.262044
20
57.833689
30
0.0
0
VERTEX
100
AcDbVertex
100
AcDb2dVertex
8
Layer01
10
326.729051
20
57.945369
30
0.0
0
VERTEX
100
AcDbVertex
100
AcDb2dVertex
8
Layer01
10
326.196057
20
58.056816
30
0.0
0
VERTEX
100
AcDbVertex
100
AcDb2dVertex
8
Layer01
10
325.663064
20
58.168028
30
0.0
0
VERTEX
100
AcDbVertex
100
AcDb2dVertex
8
Layer01
10
325.130071
20
58.279005
30
0.0
0
VERTEX
100
AcDbVertex
100
AcDb2dVertex
8
Layer01
10
324.597014
20
58.389797
30
0.0
0
VERTEX
100
AcDbVertex
100
AcDb2dVertex
8
Layer01
10
324.064021
20
58.500336
30
0.0
0
VERTEX
100
AcDbVertex
100
AcDb2dVertex
8
Layer01
10
323.531028
20
58.61063
30
0.0
0
VERTEX
100
AcDbVertex
100
AcDb2dVertex
8
Layer01
10
322.998035
20
58.720676
30
0.0
0
VERTEX
100
AcDbVertex
100
AcDb2dVertex
8
Layer01
10
322.465042
20
58.830469
30
0.0
0
VERTEX
100
AcDbVertex
100
AcDb2dVertex
8
Layer01
10
321.932049
20
58.940004
30
0.0
0
VERTEX
100
AcDbVertex
100
AcDb2dVertex
8
Layer01
10
321.399056
20
59.049278
30
0.0
0
VERTEX
100
AcDbVertex
100
AcDb2dVertex
8
Layer01
10
320.866063
20
59.158286
30
0.0
0
VERTEX
100
AcDbVertex
100
AcDb2dVertex
8
Layer01
10
320.333069
20
59.267025
30
0.0
0
VERTEX
100
AcDbVertex
100
AcDb2dVertex
8
Layer01
10
319.800076
20
59.375492
30
0.0
0
VERTEX
100
AcDbVertex
100
AcDb2dVertex
8
Layer01
10
319.26702
20
59.483638
30
0.0
0
VERTEX
100
AcDbVertex
100
AcDb2dVertex
8
Layer01
10
318.734026
20
59.591499
30
0.0
0
VERTEX
100
AcDbVertex
100
AcDb2dVertex
8
Layer01
10
318.201033
20
59.69909
30
0.0
0
VERTEX
100
AcDbVertex
100
AcDb2dVertex
8
Layer01
10
317.66804
20
59.806413
30
0.0
0
VERTEX
100
AcDbVertex
100
AcDb2dVertex
8
Layer01
10
317.135047
20
59.913474
30
0.0
0
VERTEX
100
AcDbVertex
100
AcDb2dVertex
8
Layer01
10
316.602054
20
60.020274
30
0.0
0
VERTEX
100
AcDbVertex
100
AcDb2dVertex
8
Layer01
10
316.069061
20
60.126818
30
0.0
0
VERTEX
100
AcDbVertex
100
AcDb2dVertex
8
Layer01
10
315.536068
20
60.233111
30
0.0
0
VERTEX
100
AcDbVertex
100
AcDb2dVertex
8
Layer01
10
315.003074
20
60.339155
30
0.0
0
VERTEX
100
AcDbVertex
100
AcDb2dVertex
8
Layer01
10
314.470081
20
60.444955
30
0.0
0
VERTEX
100
AcDbVertex
100
AcDb2dVertex
8
Layer01
10
313.936993
20
60.550572
30
0.0
0
VERTEX
100
AcDbVertex
100
AcDb2dVertex
8
Layer01
10
313.404
20
60.65593
30
0.0
0
VERTEX
100
AcDbVertex
100
AcDb2dVertex
8
Layer01
10
312.871007
20
60.761048
30
0.0
0
VERTEX
100
AcDbVertex
100
AcDb2dVertex
8
Layer01
10
312.338013
20
60.865925
30
0.0
0
VERTEX
100
AcDbVertex
100
AcDb2dVertex
8
Layer01
10
311.80502
20
60.970562
30
0.0
0
VERTEX
100
AcDbVertex
100
AcDb2dVertex
8
Layer01
10
311.272027
20
61.074959
30
0.0
0
VERTEX
100
AcDbVertex
100
AcDb2dVertex
8
Layer01
10
310.739034
20
61.179113
30
0.0
0
VERTEX
100
AcDbVertex
100
AcDb2dVertex
8
Layer01
10
310.206041
20
61.283026
30
0.0
0
VERTEX
100
AcDbVertex
100
AcDb2dVertex
8
Layer01
10
309.673048
20
61.386695
30
0.0
0
VERTEX
100
AcDbVertex
100
AcDb2dVertex
8
Layer01
10
309.140055
20
61.490121
30
0.0
0
VERTEX
100
AcDbVertex
100
AcDb2dVertex
8
Layer01
10
308.606998
20
61.593304
30
0.0
0
VERTEX
100
AcDbVertex
100
AcDb2dVertex
8
Layer01
10
308.074005
20
61.69623
30
0.0
0
VERTEX
100
AcDbVertex
100
AcDb2dVertex
8
Layer01
10
307.541012
20
61.798911
30
0.0
0
VERTEX
100
AcDbVertex
100
AcDb2dVertex
8
Layer01
10
307.008019
20
61.901347
30
0.0
0
VERTEX
100
AcDbVertex
100
AcDb2dVertex
8
Layer01
10
306.475025
20
62.003538
30
0.0
0
VERTEX
100
AcDbVertex
100
AcDb2dVertex
8
Layer01
10
305.942032
20
62.105484
30
0.0
0
VERTEX
100
AcDbVertex
100
AcDb2dVertex
8
Layer01
10
305.409039
20
62.207185
30
0.0
0
VERTEX
100
AcDbVertex
100
AcDb2dVertex
8
Layer01
10
304.876046
20
62.30864
30
0.0
0
VERTEX
100
AcDbVertex
100
AcDb2dVertex
8
Layer01
10
304.343053
20
62.40985
30
0.0
0
VERTEX
100
AcDbVertex
100
AcDb2dVertex
8
Layer01
10
303.81006
20
62.510815
30
0.0
0
VERTEX
100
AcDbVertex
100
AcDb2dVertex
8
Layer01
10
303.277003
20
62.611547
30
0.0
0
VERTEX
100
AcDbVertex
100
AcDb2dVertex
8
Layer01
10
302.74401
20
62.712021
30
0.0
0
VERTEX
100
AcDbVertex
100
AcDb2dVertex
8
Layer01
10
302.211017
20
62.812248
30
0.0
0
VERTEX
100
AcDbVertex
100
AcDb2dVertex
8
Layer01
10
301.678024
20
62.91223
30
0.0
0
VERTEX
100
AcDbVertex
100
AcDb2dVertex
8
Layer01
10
301.14503
20
63.011965
30
0.0
0
VERTEX
100
AcDbVertex
100
AcDb2dVertex
8
Layer01
10
300.612037
20
63.111454
30
0.0
0
VERTEX
100
AcDbVertex
100
AcDb2dVertex
8
Layer01
10
300.079044
20
63.210696
30
0.0
0
VERTEX
100
AcDbVertex
100
AcDb2dVertex
8
Layer01
10
299.546051
20
63.309691
30
0.0
0
VERTEX
100
AcDbVertex
100
AcDb2dVertex
8
Layer01
10
299.013058
20
63.408438
30
0.0
0
VERTEX
100
AcDbVertex
100
AcDb2dVertex
8
Layer01
10
298.480065
20
63.506938
30
0.0
0
VERTEX
100
AcDbVertex
100
AcDb2dVertex
8
Layer01
10
297.947008
20
63.605202
30
0.0
0
VERTEX
100
AcDbVertex
100
AcDb2dVertex
8
Layer01
10
297.414015
20
63.703206
30
0.0
0
VERTEX
100
AcDbVertex
100
AcDb2dVertex
8
Layer01
10
296.881022
20
63.800961
30
0.0
0
VERTEX
100
AcDbVertex
100
AcDb2dVertex
8
Layer01
10
296.348029
20
63.898468
30
0.0
0
VERTEX
100
AcDbVertex
100
AcDb2dVertex
8
Layer01
10
295.815036
20
63.995727
30
0.0
0
VERTEX
100
AcDbVertex
100
AcDb2dVertex
8
Layer01
10
295.282042
20
64.092736
30
0.0
0
VERTEX
100
AcDbVertex
100
AcDb2dVertex
8
Layer01
10
294.749049
20
64.189496
30
0.0
0
VERTEX
100
AcDbVertex
100
AcDb2dVertex
8
Layer01
10
294.216056
20
64.286006
30
0.0
0
VERTEX
100
AcDbVertex
100
AcDb2dVertex
8
Layer01
10
293.683063
20
64.382266
30
0.0
0
VERTEX
100
AcDbVertex
100
AcDb2dVertex
8
Layer01
10
293.15007
20
64.478277
30
0.0
0
VERTEX
100
AcDbVertex
100
AcDb2dVertex
8
Layer01
10
292.617013
20
64.574048
30
0.0
0
VERTEX
100
AcDbVertex
100
AcDb2dVertex
8
Layer01
10
292.08402
20
64.669557
30
0.0
0
VERTEX
100
AcDbVertex
100
AcDb2dVertex
8
Layer01
10
291.551027
20
64.764816
30
0.0
0
VERTEX
100
AcDbVertex
100
AcDb2dVertex
8
Layer01
10
291.018034
20
64.859822
30
0.0
0
VERTEX
100
AcDbVertex
100
AcDb2dVertex
8
Layer01
10
290.485041
20
64.954577
30
0.0
0
VERTEX
100
AcDbVertex
100
AcDb2dVertex
8
Layer01
10
289.952048
20
65.04908
30
0.0
0
VERTEX
100
AcDbVertex
100
AcDb2dVertex
8
Layer01
10
289.419054
20
65.143331
30
0.0
0
VERTEX
100
AcDbVertex
100
AcDb2dVertex
8
Layer01
10
288.886061
20
65.237328
30
0.0
0
VERTEX
100
AcDbVertex
100
AcDb2dVertex
8
Layer01
10
288.353068
20
65.331073
30
0.0
0
VERTEX
100
AcDbVertex
100
AcDb2dVertex
8
Layer01
10
287.820075
20
65.424564
30
0.0
0
VERTEX
100
AcDbVertex
100
AcDb2dVertex
8
Layer01
10
287.287018
20
65.517811
30
0.0
0
VERTEX
100
AcDbVertex
100
AcDb2dVertex
8
Layer01
10
286.754025
20
65.610793
30
0.0
0
VERTEX
100
AcDbVertex
100
AcDb2dVertex
8
Layer01
10
286.221032
20
65.703521
30
0.0
0
VERTEX
100
AcDbVertex
100
AcDb2dVertex
8
Layer01
10
285.688039
20
65.795994
30
0.0
0
VERTEX
100
AcDbVertex
100
AcDb2dVertex
8
Layer01
10
285.155046
20
65.888213
30
0.0
0
VERTEX
100
AcDbVertex
100
AcDb2dVertex
8
Layer01
10
284.622053
20
65.980177
30
0.0
0
VERTEX
100
AcDbVertex
100
AcDb2dVertex
8
Layer01
10
284.089059
20
66.071886
30
0.0
0
VERTEX
100
AcDbVertex
100
AcDb2dVertex
8
Layer01
10
283.556066
20
66.16334
30
0.0
0
VERTEX
100
AcDbVertex
100
AcDb2dVertex
8
Layer01
10
283.023073
20
66.254539
30
0.0
0
VERTEX
100
AcDbVertex
100
AcDb2dVertex
8
Layer01
10
282.49008
20
66.345481
30
0.0
0
VERTEX
100
AcDbVertex
100
AcDb2dVertex
8
Layer01
10
281.956992
20
66.436187
30
0.0
0
VERTEX
100
AcDbVertex
100
AcDb2dVertex
8
Layer01
10
281.423998
20
66.526619
30
0.0
0
VERTEX
100
AcDbVertex
100
AcDb2dVertex
8
Layer01
10
280.891005
20
66.616795
30
0.0
0
VERTEX
100
AcDbVertex
100
AcDb2dVertex
8
Layer01
10
280.358012
20
66.706712
30
0.0
0
VERTEX
100
AcDbVertex
100
AcDb2dVertex
8
Layer01
10
279.825019
20
66.796371
30
0.0
0
VERTEX
100
AcDbVertex
100
AcDb2dVertex
8
Layer01
10
279.292026
20
66.885771
30
0.0
0
VERTEX
100
AcDbVertex
100
AcDb2dVertex
8
Layer01
10
278.759033
20
66.974911
30
0.0
0
VERTEX
100
AcDbVertex
100
AcDb2dVertex
8
Layer01
10
278.22604
20
67.063791
30
0.0
0
VERTEX
100
AcDbVertex
100
AcDb2dVertex
8
Layer01
10
277.693047
20
67.152409
30
0.0
0
VERTEX
100
AcDbVertex
100
AcDb2dVertex
8
Layer01
10
277.160053
20
67.240766
30
0.0
0
VERTEX
100
AcDbVertex
100
AcDb2dVertex
8
Layer01
10
276.626997
20
67.328906
30
0.0
0
VERTEX
100
AcDbVertex
100
AcDb2dVertex
8
Layer01
10
276.094004
20
67.416769
30
0.0
0
VERTEX
100
AcDbVertex
100
AcDb2dVertex
8
Layer01
10
275.56101
20
67.504364
30
0.0
0
VERTEX
100
AcDbVertex
100
AcDb2dVertex
8
Layer01
10
275.028017
20
67.591687
30
0.0
0
VERTEX
100
AcDbVertex
100
AcDb2dVertex
8
Layer01
10
274.495024
20
67.678736
30
0.0
0
VERTEX
100
AcDbVertex
100
AcDb2dVertex
8
Layer01
10
273.962031
20
67.765509
30
0.0
0
VERTEX
100
AcDbVertex
100
AcDb2dVertex
8
Layer01
10
273.429038
20
67.852005
30
0.0
0
VERTEX
100
AcDbVertex
100
AcDb2dVertex
8
Layer01
10
272.896045
20
67.938222
30
0.0
0
VERTEX
100
AcDbVertex
100
AcDb2dVertex
8
Layer01
10
272.363052
20
68.024161
30
0.0
0
VERTEX
100
AcDbVertex
100
AcDb2dVertex
8
Layer01
10
271.830058
20
68.109822
30
0.0
0
VERTEX
100
AcDbVertex
100
AcDb2dVertex
8
Layer01
10
271.297002
20
68.195067
30
0.0
0
VERTEX
100
AcDbVertex
100
AcDb2dVertex
8
Layer01
10
270.764009
20
68.28004
30
0.0
0
VERTEX
100
AcDbVertex
100
AcDb2dVertex
8
Layer01
10
270.231016
20
68.364767
30
0.0
0
VERTEX
100
AcDbVertex
100
AcDb2dVertex
8
Layer01
10
269.698022
20
68.449263
30
0.0
0
VERTEX
100
AcDbVertex
100
AcDb2dVertex
8
Layer01
10
269.165029
20
68.533544
30
0.0
0
VERTEX
100
AcDbVertex
100
AcDb2dVertex
8
Layer01
10
268.632036
20
68.617625
30
0.0
0
VERTEX
100
AcDbVertex
100
AcDb2dVertex
8
Layer01
10
268.099043
20
68.701521
30
0.0
0
VERTEX
100
AcDbVertex
100
AcDb2dVertex
8
Layer01
10
267.56605
20
68.785246
30
0.0
0
VERTEX
100
AcDbVertex
100
AcDb2dVertex
8
Layer01
10
267.033057
20
68.868811
30
0.0
0
VERTEX
100
AcDbVertex
100
AcDb2dVertex
8
Layer01
10
266.500064
20
68.952228
30
0.0
0
VERTEX
100
AcDbVertex
100
AcDb2dVertex
8
Layer01
10
265.967007
20
69.035745
30
0.0
0
VERTEX
100
AcDbVertex
100
AcDb2dVertex
8
Layer01
10
265.434014
20
69.119101
30
0.0
0
VERTEX
100
AcDbVertex
100
AcDb2dVertex
8
Layer01
10
264.901021
20
69.202294
30
0.0
0
VERTEX
100
AcDbVertex
100
AcDb2dVertex
8
Layer01
10
264.368027
20
69.285307
30
0.0
0
VERTEX
100
AcDbVertex
100
AcDb2dVertex
8
Layer01
10
263.835034
20
69.368127
30
0.0
0
VERTEX
100
AcDbVertex
100
AcDb2dVertex
8
Layer01
10
263.302041
20
69.450735
30
0.0
0
VERTEX
100
AcDbVertex
100
AcDb2dVertex
8
Layer01
10
262.769048
20
69.533114
30
0.0
0
VERTEX
100
AcDbVertex
100
AcDb2dVertex
8
Layer01
10
262.236055
20
69.615245
30
0.0
0
VERTEX
100
AcDbVertex
100
AcDb2dVertex
8
Layer01
10
261.703062
20
69.697112
30
0.0
0
VERTEX
100
AcDbVertex
100
AcDb2dVertex
8
Layer01
10
261.170069
20
69.778697
30
0.0
0
VERTEX
100
AcDbVertex
100
AcDb2dVertex
8
Layer01
10
260.637012
20
69.85984
30
0.0
0
VERTEX
100
AcDbVertex
100
AcDb2dVertex
8
Layer01
10
260.104019
20
69.940671
30
0.0
0
VERTEX
100
AcDbVertex
100
AcDb2dVertex
8
Layer01
10
259.571026
20
70.021196
30
0.0
0
VERTEX
100
AcDbVertex
100
AcDb2dVertex
8
Layer01
10
259.038033
20
70.101414
30
0.0
0
VERTEX
100
AcDbVertex
100
AcDb2dVertex
8
Layer01
10
258.505039
20
70.181322
30
0.0
0
VERTEX
100
AcDbVertex
100
AcDb2dVertex
8
Layer01
10
257.972046
20
70.260921
30
0.0
0
VERTEX
100
AcDbVertex
100
AcDb2dVertex
8
Layer01
10
257.439053
20
70.34021
30
0.0
0
VERTEX
100
AcDbVertex
100
AcDb2dVertex
8
Layer01
10
256.90606
20
70.41919
30
0.0
0
VERTEX
100
AcDbVertex
100
AcDb2dVertex
8
Layer01
10
256.373067
20
70.497861
30
0.0
0
VERTEX
100
AcDbVertex
100
AcDb2dVertex
8
Layer01
10
255.840074
20
70.576225
30
0.0
0
VERTEX
100
AcDbVertex
100
AcDb2dVertex
8
Layer01
10
255.307001
20
70.654331
30
0.0
0
VERTEX
100
AcDbVertex
100
AcDb2dVertex
8
Layer01
10
254.774008
20
70.732117
30
0.0
0
VERTEX
100
AcDbVertex
100
AcDb2dVertex
8
Layer01
10
254.241015
20
70.809594
30
0.0
0
VERTEX
100
AcDbVertex
100
AcDb2dVertex
8
Layer01
10
253.708022
20
70.886759
30
0.0
0
VERTEX
100
AcDbVertex
100
AcDb2dVertex
8
Layer01
10
253.175029
20
70.963611
30
0.0
0
VERTEX
100
AcDbVertex
100
AcDb2dVertex
8
Layer01
10
252.642035
20
71.040147
30
0.0
0
VERTEX
100
AcDbVertex
100
AcDb2dVertex
8
Layer01
10
252.109042
20
71.116367
30
0.0
0
VERTEX
100
AcDbVertex
100
AcDb2dVertex
8
Layer01
10
251.576049
20
71.192268
30
0.0
0
VERTEX
100
AcDbVertex
100
AcDb2dVertex
8
Layer01
10
251.043056
20
71.267849
30
0.0
0
VERTEX
100
AcDbVertex
100
AcDb2dVertex
8
Layer01
10
250.510063
20
71.343107
30
0.0
0
VERTEX
100
AcDbVertex
100
AcDb2dVertex
8
Layer01
10
249.977006
20
71.418051
30
0.0
0
VERTEX
100
AcDbVertex
100
AcDb2dVertex
8
Layer01
10
249.444013
20
71.492661
30
0.0
0
VERTEX
100
AcDbVertex
100
AcDb2dVertex
8
Layer01
10
248.91102
20
71.566943
30
0.0
0
VERTEX
100
AcDbVertex
100
AcDb2dVertex
8
Layer01
10
248.378027
20
71.640895
30
0.0
0
VERTEX
100
AcDbVertex
100
AcDb2dVertex
8
Layer01
10
247.845034
20
71.714516
30
0.0
0
VERTEX
100
AcDbVertex
100
AcDb2dVertex
8
Layer01
10
247.312041
20
71.787803
30
0.0
0
VERTEX
100
AcDbVertex
100
AcDb2dVertex
8
Layer01
10
246.779047
20
71.860755
30
0.0
0
VERTEX
100
AcDbVertex
100
AcDb2dVertex
8
Layer01
10
246.246054
20
71.93337
30
0.0
0
VERTEX
100
AcDbVertex
100
AcDb2dVertex
8
Layer01
10
245.713061
20
72.005646
30
0.0
0
VERTEX
100
AcDbVertex
100
AcDb2dVertex
8
Layer01
10
245.180068
20
72.077581
30
0.0
0
VERTEX
100
AcDbVertex
100
AcDb2dVertex
8
Layer01
10
244.647011
20
72.14918
30
0.0
0
VERTEX
100
AcDbVertex
100
AcDb2dVertex
8
Layer01
10
244.114018
20
72.220426
30
0.0
0
VERTEX
100
AcDbVertex
100
AcDb2dVertex
8
Layer01
10
243.581025
20
72.291326
30
0.0
0
VERTEX
100
AcDbVertex
100
AcDb2dVertex
8
Layer01
10
243.048032
20
72.361877
30
0.0
0
VERTEX
100
AcDbVertex
100
AcDb2dVertex
8
Layer01
10
242.515039
20
72.432079
30
0.0
0
VERTEX
100
AcDbVertex
100
AcDb2dVertex
8
Layer01
10
241.982046
20
72.50193
30
0.0
0
VERTEX
100
AcDbVertex
100
AcDb2dVertex
8
Layer01
10
241.449052
20
72.571427
30
0.0
0
VERTEX
100
AcDbVertex
100
AcDb2dVertex
8
Layer01
10
240.916059
20
72.64057
30
0.0
0
VERTEX
100
AcDbVertex
100
AcDb2dVertex
8
Layer01
10
240.383066
20
72.709355
30
0.0
0
VERTEX
100
AcDbVertex
100
AcDb2dVertex
8
Layer01
10
239.850073
20
72.777783
30
0.0
0
VERTEX
100
AcDbVertex
100
AcDb2dVertex
8
Layer01
10
239.317001
20
72.845862
30
0.0
0
VERTEX
100
AcDbVertex
100
AcDb2dVertex
8
Layer01
10
238.784007
20
72.913569
30
0.0
0
VERTEX
100
AcDbVertex
100
AcDb2dVertex
8
Layer01
10
238.251014
20
72.980912
30
0.0
0
VERTEX
100
AcDbVertex
100
AcDb2dVertex
8
Layer01
10
237.718021
20
73.047889
30
0.0
0
VERTEX
100
AcDbVertex
100
AcDb2dVertex
8
Layer01
10
237.185028
20
73.114498
30
0.0
0
VERTEX
100
AcDbVertex
100
AcDb2dVertex
8
Layer01
10
236.652035
20
73.180737
30
0.0
0
VERTEX
100
AcDbVertex
100
AcDb2dVertex
8
Layer01
10
236.119042
20
73.246605
30
0.0
0
VERTEX
100
AcDbVertex
100
AcDb2dVertex
8
Layer01
10
235.586049
20
73.312098
30
0.0
0
VERTEX
100
AcDbVertex
100
AcDb2dVertex
8
Layer01
10
235.053055
20
73.377216
30
0.0
0
VERTEX
100
AcDbVertex
100
AcDb2dVertex
8
Layer01
10
234.520062
20
73.441956
30
0.0
0
VERTEX
100
AcDbVertex
100
AcDb2dVertex
8
Layer01
10
233.987006
20
73.506322
30
0.0
0
VERTEX
100
AcDbVertex
100
AcDb2dVertex
8
Layer01
10
233.454012
20
73.5703
30
0.0
0
VERTEX
100
AcDbVertex
100
AcDb2dVertex
8
Layer01
10
232.921019
20
73.633894
30
0.0
0
VERTEX
100
AcDbVertex
100
AcDb2dVertex
8
Layer01
10
232.388026
20
73.697103
30
0.0
0
VERTEX
100
AcDbVertex
100
AcDb2dVertex
8
Layer01
10
231.855033
20
73.759926
30
0.0
0
VERTEX
100
AcDbVertex
100
AcDb2dVertex
8
Layer01
10
231.32204
20
73.82236
30
0.0
0
VERTEX
100
AcDbVertex
100
AcDb2dVertex
8
Layer01
10
230.789047
20
73.884404
30
0.0
0
VERTEX
100
AcDbVertex
100
AcDb2dVertex
8
Layer01
10
230.256054
20
73.946056
30
0.0
0
VERTEX
100
AcDbVertex
100
AcDb2dVertex
8
Layer01
10
229.72306
20
74.007314
30
0.0
0
VERTEX
100
AcDbVertex
100
AcDb2dVertex
8
Layer01
10
229.190067
20
74.068177
30
0.0
0
VERTEX
100
AcDbVertex
100
AcDb2dVertex
8
Layer01
10
228.657011
20
74.128651
30
0.0
0
VERTEX
100
AcDbVertex
100
AcDb2dVertex
8
Layer01
10
228.124018
20
74.188719
30
0.0
0
VERTEX
100
AcDbVertex
100
AcDb2dVertex
8
Layer01
10
227.591024
20
74.248386
30
0.0
0
VERTEX
100
AcDbVertex
100
AcDb2dVertex
8
Layer01
10
227.058031
20
74.307651
30
0.0
0
VERTEX
100
AcDbVertex
100
AcDb2dVertex
8
Layer01
10
226.525038
20
74.366512
30
0.0
0
VERTEX
100
AcDbVertex
100
AcDb2dVertex
8
Layer01
10
225.992045
20
74.424966
30
0.0
0
VERTEX
100
AcDbVertex
100
AcDb2dVertex
8
Layer01
10
225.459052
20
74.483013
30
0.0
0
VERTEX
100
AcDbVertex
100
AcDb2dVertex
8
Layer01
10
224.926059
20
74.540651
30
0.0
0
VERTEX
100
AcDbVertex
100
AcDb2dVertex
8
Layer01
10
224.393066
20
74.597877
30
0.0
0
VERTEX
100
AcDbVertex
100
AcDb2dVertex
8
Layer01
10
223.860072
20
74.654691
30
0.0
0
VERTEX
100
AcDbVertex
100
AcDb2dVertex
8
Layer01
10
223.327
20
74.711001
30
0.0
0
VERTEX
100
AcDbVertex
100
AcDb2dVertex
8
Layer01
10
222.794007
20
74.766894
30
0.0
0
VERTEX
100
AcDbVertex
100
AcDb2dVertex
8
Layer01
10
222.261014
20
74.822383
30
0.0
0
VERTEX
100
AcDbVertex
100
AcDb2dVertex
8
Layer01
10
221.72802
20
74.877472
30
0.0
0
VERTEX
100
AcDbVertex
100
AcDb2dVertex
8
Layer01
10
221.195027
20
74.932166
30
0.0
0
VERTEX
100
AcDbVertex
100
AcDb2dVertex
8
Layer01
10
220.662034
20
74.986467
30
0.0
0
VERTEX
100
AcDbVertex
100
AcDb2dVertex
8
Layer01
10
220.129041
20
75.040377
30
0.0
0
VERTEX
100
AcDbVertex
100
AcDb2dVertex
8
Layer01
10
219.596048
20
75.093894
30
0.0
0
VERTEX
100
AcDbVertex
100
AcDb2dVertex
8
Layer01
10
219.063055
20
75.147016
30
0.0
0
VERTEX
100
AcDbVertex
100
AcDb2dVertex
8
Layer01
10
218.530062
20
75.199738
30
0.0
0
VERTEX
100
AcDbVertex
100
AcDb2dVertex
8
Layer01
10
217.997005
20
75.252453
30
0.0
0
VERTEX
100
AcDbVertex
100
AcDb2dVertex
8
Layer01
10
217.464012
20
75.304714
30
0.0
0
VERTEX
100
AcDbVertex
100
AcDb2dVertex
8
Layer01
10
216.931019
20
75.356485
30
0.0
0
VERTEX
100
AcDbVertex
100
AcDb2dVertex
8
Layer01
10
216.398026
20
75.407722
30
0.0
0
VERTEX
100
AcDbVertex
100
AcDb2dVertex
8
Layer01
10
215.865032
20
75.458383
30
0.0
0
VERTEX
100
AcDbVertex
100
AcDb2dVertex
8
Layer01
10
215.332039
20
75.508424
30
0.0
0
VERTEX
100
AcDbVertex
100
AcDb2dVertex
8
Layer01
10
214.799046
20
75.557805
30
0.0
0
VERTEX
100
AcDbVertex
100
AcDb2dVertex
8
Layer01
10
214.266053
20
75.606485
30
0.0
0
VERTEX
100
AcDbVertex
100
AcDb2dVertex
8
Layer01
10
213.73306
20
75.654431
30
0.0
0
VERTEX
100
AcDbVertex
100
AcDb2dVertex
8
Layer01
10
213.200067
20
75.701611
30
0.0
0
VERTEX
100
AcDbVertex
100
AcDb2dVertex
8
Layer01
10
212.66701
20
75.747409
30
0.0
0
VERTEX
100
AcDbVertex
100
AcDb2dVertex
8
Layer01
10
212.134017
20
75.792434
30
0.0
0
VERTEX
100
AcDbVertex
100
AcDb2dVertex
8
Layer01
10
211.601024
20
75.836723
30
0.0
0
VERTEX
100
AcDbVertex
100
AcDb2dVertex
8
Layer01
10
211.068031
20
75.88031
30
0.0
0
VERTEX
100
AcDbVertex
100
AcDb2dVertex
8
Layer01
10
210.535037
20
75.923233
30
0.0
0
VERTEX
100
AcDbVertex
100
AcDb2dVertex
8
Layer01
10
210.002044
20
75.965533
30
0.0
0
VERTEX
100
AcDbVertex
100
AcDb2dVertex
8
Layer01
10
209.469051
20
76.007251
30
0.0
0
VERTEX
100
AcDbVertex
100
AcDb2dVertex
8
Layer01
10
208.936058
20
76.048431
30
0.0
0
VERTEX
100
AcDbVertex
100
AcDb2dVertex
8
Layer01
10
208.403065
20
76.089115
30
0.0
0
VERTEX
100
AcDbVertex
100
AcDb2dVertex
8
Layer01
10
207.870072
20
76.129344
30
0.0
0
VERTEX
100
AcDbVertex
100
AcDb2dVertex
8
Layer01
10
207.336999
20
76.169559
30
0.0
0
VERTEX
100
AcDbVertex
100
AcDb2dVertex
8
Layer01
10
206.804006
20
76.20936
30
0.0
0
VERTEX
100
AcDbVertex
100
AcDb2dVertex
8
Layer01
10
206.271013
20
76.248755
30
0.0
0
VERTEX
100
AcDbVertex
100
AcDb2dVertex
8
Layer01
10
205.73802
20
76.287748
30
0.0
0
VERTEX
100
AcDbVertex
100
AcDb2dVertex
8
Layer01
10
205.205027
20
76.326337
30
0.0
0
VERTEX
100
AcDbVertex
100
AcDb2dVertex
8
Layer01
10
204.672034
20
76.36452
30
0.0
0
VERTEX
100
AcDbVertex
100
AcDb2dVertex
8
Layer01
10
204.13904
20
76.402293
30
0.0
0
VERTEX
100
AcDbVertex
100
AcDb2dVertex
8
Layer01
10
203.606047
20
76.439653
30
0.0
0
VERTEX
100
AcDbVertex
100
AcDb2dVertex
8
Layer01
10
203.073054
20
76.476592
30
0.0
0
VERTEX
100
AcDbVertex
100
AcDb2dVertex
8
Layer01
10
202.540061
20
76.513105
30
0.0
0
VERTEX
100
AcDbVertex
100
AcDb2dVertex
8
Layer01
10
202.007004
20
76.549092
30
0.0
0
VERTEX
100
AcDbVertex
100
AcDb2dVertex
8
Layer01
10
201.474011
20
76.584642
30
0.0
0
VERTEX
100
AcDbVertex
100
AcDb2dVertex
8
Layer01
10
200.941018
20
76.619761
30
0.0
0
VERTEX
100
AcDbVertex
100
AcDb2dVertex
8
Layer01
10
200.408025
20
76.654449
30
0.0
0
VERTEX
100
AcDbVertex
100
AcDb2dVertex
8
Layer01
10
199.875032
20
76.688708
30
0.0
0
VERTEX
100
AcDbVertex
100
AcDb2dVertex
8
Layer01
10
199.342039
20
76.722538
30
0.0
0
VERTEX
100
AcDbVertex
100
AcDb2dVertex
8
Layer01
10
198.809045
20
76.75594
30
0.0
0
VERTEX
100
AcDbVertex
100
AcDb2dVertex
8
Layer01
10
198.276052
20
76.788915
30
0.0
0
VERTEX
100
AcDbVertex
100
AcDb2dVertex
8
Layer01
10
197.743059
20
76.821463
30
0.0
0
VERTEX
100
AcDbVertex
100
AcDb2dVertex
8
Layer01
10
197.210066
20
76.853586
30
0.0
0
VERTEX
100
AcDbVertex
100
AcDb2dVertex
8
Layer01
10
196.677009
20
76.885288
30
0.0
0
VERTEX
100
AcDbVertex
100
AcDb2dVertex
8
Layer01
10
196.144016
20
76.916562
30
0.0
0
VERTEX
100
AcDbVertex
100
AcDb2dVertex
8
Layer01
10
195.611023
20
76.947413
30
0.0
0
VERTEX
100
AcDbVertex
100
AcDb2dVertex
8
Layer01
10
195.07803
20
76.977841
30
0.0
0
VERTEX
100
AcDbVertex
100
AcDb2dVertex
8
Layer01
10
194.545037
20
77.007848
30
0.0
0
VERTEX
100
AcDbVertex
100
AcDb2dVertex
8
Layer01
10
194.012044
20
77.037434
30
0.0
0
VERTEX
100
AcDbVertex
100
AcDb2dVertex
8
Layer01
10
193.479051
20
77.066601
30
0.0
0
VERTEX
100
AcDbVertex
100
AcDb2dVertex
8
Layer01
10
192.946057
20
77.095347
30
0.0
0
VERTEX
100
AcDbVertex
100
AcDb2dVertex
8
Layer01
10
192.413064
20
77.123676
30
0.0
0
VERTEX
100
AcDbVertex
100
AcDb2dVertex
8
Layer01
10
191.880071
20
77.151586
30
0.0
0
VERTEX
100
AcDbVertex
100
AcDb2dVertex
8
Layer01
10
191.347014
20
77.179083
30
0.0
0
VERTEX
100
AcDbVertex
100
AcDb2dVertex
8
Layer01
10
190.814021
20
77.206161
30
0.0
0
VERTEX
100
AcDbVertex
100
AcDb2dVertex
8
Layer01
10
190.281028
20
77.232822
30
0.0
0
VERTEX
100
AcDbVertex
100
AcDb2dVertex
8
Layer01
10
189.748035
20
77.259068
30
0.0
0
VERTEX
100
AcDbVertex
100
AcDb2dVertex
8
Layer01
10
189.215042
20
77.284899
30
0.0
0
VERTEX
100
AcDbVertex
100
AcDb2dVertex
8
Layer01
10
188.682049
20
77.310316
30
0.0
0
VERTEX
100
AcDbVertex
100
AcDb2dVertex
8
Layer01
10
188.149056
20
77.33532
30
0.0
0
VERTEX
100
AcDbVertex
100
AcDb2dVertex
8
Layer01
10
187.616063
20
77.35991
30
0.0
0
VERTEX
100
AcDbVertex
100
AcDb2dVertex
8
Layer01
10
187.083069
20
77.384088
30
0.0
0
VERTEX
100
AcDbVertex
100
AcDb2dVertex
8
Layer01
10
186.550076
20
77.407853
30
0.0
0
VERTEX
100
AcDbVertex
100
AcDb2dVertex
8
Layer01
10
186.017004
20
77.431211
30
0.0
0
VERTEX
100
AcDbVertex
100
AcDb2dVertex
8
Layer01
10
185.484011
20
77.454154
30
0.0
0
VERTEX
100
AcDbVertex
100
AcDb2dVertex
8
Layer01
10
184.951017
20
77.476686
30
0.0
0
VERTEX
100
AcDbVertex
100
AcDb2dVertex
8
Layer01
10
184.418024
20
77.498807
30
0.0
0
VERTEX
100
AcDbVertex
100
AcDb2dVertex
8
Layer01
10
183.885031
20
77.520517
30
0.0
0
VERTEX
100
AcDbVertex
100
AcDb2dVertex
8
Layer01
10
183.352038
20
77.541817
30
0.0
0
VERTEX
100
AcDbVertex
100
AcDb2dVertex
8
Layer01
10
182.819045
20
77.562707
30
0.0
0
VERTEX
100
AcDbVertex
100
AcDb2dVertex
8
Layer01
10
182.286052
20
77.583188
30
0.0
0
VERTEX
100
AcDbVertex
100
AcDb2dVertex
8
Layer01
10
181.753059
20
77.603258
30
0.0
0
VERTEX
100
AcDbVertex
100
AcDb2dVertex
8
Layer01
10
181.220065
20
77.62292
30
0.0
0
VERTEX
100
AcDbVertex
100
AcDb2dVertex
8
Layer01
10
180.687009
20
77.642172
30
0.0
0
VERTEX
100
AcDbVertex
100
AcDb2dVertex
8
Layer01
10
180.154016
20
77.661013
30
0.0
0
VERTEX
100
AcDbVertex
100
AcDb2dVertex
8
Layer01
10
179.621022
20
77.679446
30
0.0
0
VERTEX
100
AcDbVertex
100
AcDb2dVertex
8
Layer01
10
179.088029
20
77.69747
30
0.0
0
VERTEX
100
AcDbVertex
100
AcDb2dVertex
8
Layer01
10
178.555036
20
77.715086
30
0.0
0
VERTEX
100
AcDbVertex
100
AcDb2dVertex
8
Layer01
10
178.022043
20
77.732294
30
0.0
0
VERTEX
100
AcDbVertex
100
AcDb2dVertex
8
Layer01
10
177.48905
20
77.749094
30
0.0
0
VERTEX
100
AcDbVertex
100
AcDb2dVertex
8
Layer01
10
176.956057
20
77.765487
30
0.0
0
VERTEX
100
AcDbVertex
100
AcDb2dVertex
8
Layer01
10
176.423064
20
77.781473
30
0.0
0
VERTEX
100
AcDbVertex
100
AcDb2dVertex
8
Layer01
10
175.890071
20
77.797051
30
0.0
0
VERTEX
100
AcDbVertex
100
AcDb2dVertex
8
Layer01
10
175.357014
20
77.812226
30
0.0
0
VERTEX
100
AcDbVertex
100
AcDb2dVertex
8
Layer01
10
174.824021
20
77.826992
30
0.0
0
VERTEX
100
AcDbVertex
100
AcDb2dVertex
8
Layer01
10
174.291028
20
77.84135
30
0.0
0
VERTEX
100
AcDbVertex
100
AcDb2dVertex
8
Layer01
10
173.758034
20
77.8553
30
0.0
0
VERTEX
100
AcDbVertex
100
AcDb2dVertex
8
Layer01
10
173.225041
20
77.868842
30
0.0
0
VERTEX
100
AcDbVertex
100
AcDb2dVertex
8
Layer01
10
172.692048
20
77.881974
30
0.0
0
VERTEX
100
AcDbVertex
100
AcDb2dVertex
8
Layer01
10
172.159055
20
77.894698
30
0.0
0
VERTEX
100
AcDbVertex
100
AcDb2dVertex
8
Layer01
10
171.626062
20
77.907012
30
0.0
0
VERTEX
100
AcDbVertex
100
AcDb2dVertex
8
Layer01
10
171.093069
20
77.918915
30
0.0
0
VERTEX
100
AcDbVertex
100
AcDb2dVertex
8
Layer01
10
170.560076
20
77.930408
30
0.0
0
VERTEX
100
AcDbVertex
100
AcDb2dVertex
8
Layer01
10
170.027003
20
77.941586
30
0.0
0
VERTEX
100
AcDbVertex
100
AcDb2dVertex
8
Layer01
10
169.49401
20
77.952343
30
0.0
0
VERTEX
100
AcDbVertex
100
AcDb2dVertex
8
Layer01
10
168.961017
20
77.962674
30
0.0
0
VERTEX
100
AcDbVertex
100
AcDb2dVertex
8
Layer01
10
168.428024
20
77.972571
30
0.0
0
VERTEX
100
AcDbVertex
100
AcDb2dVertex
8
Layer01
10
167.89503
20
77.982029
30
0.0
0
VERTEX
100
AcDbVertex
100
AcDb2dVertex
8
Layer01
10
167.362037
20
77.991043
30
0.0
0
VERTEX
100
AcDbVertex
100
AcDb2dVertex
8
Layer01
10
166.829044
20
77.99961
30
0.0
0
VERTEX
100
AcDbVertex
100
AcDb2dVertex
8
Layer01
10
166.296051
20
78.007727
30
0.0
0
VERTEX
100
AcDbVertex
100
AcDb2dVertex
8
Layer01
10
165.763058
20
78.015396
30
0.0
0
VERTEX
100
AcDbVertex
100
AcDb2dVertex
8
Layer01
10
165.230065
20
78.022618
30
0.0
0
VERTEX
100
AcDbVertex
100
AcDb2dVertex
8
Layer01
10
164.697008
20
78.029003
30
0.0
0
VERTEX
100
AcDbVertex
100
AcDb2dVertex
8
Layer01
10
164.164015
20
78.034983
30
0.0
0
VERTEX
100
AcDbVertex
100
AcDb2dVertex
8
Layer01
10
163.631022
20
78.040601
30
0.0
0
VERTEX
100
AcDbVertex
100
AcDb2dVertex
8
Layer01
10
163.098029
20
78.045896
30
0.0
0
VERTEX
100
AcDbVertex
100
AcDb2dVertex
8
Layer01
10
162.565036
20
78.05091
30
0.0
0
VERTEX
100
AcDbVertex
100
AcDb2dVertex
8
Layer01
10
162.032042
20
78.055683
30
0.0
0
VERTEX
100
AcDbVertex
100
AcDb2dVertex
8
Layer01
10
161.499049
20
78.060254
30
0.0
0
VERTEX
100
AcDbVertex
100
AcDb2dVertex
8
Layer01
10
160.966056
20
78.064658
30
0.0
0
VERTEX
100
AcDbVertex
100
AcDb2dVertex
8
Layer01
10
160.433063
20
78.068928
30
0.0
0
VERTEX
100
AcDbVertex
100
AcDb2dVertex
8
Layer01
10
159.90007
20
78.073093
30
0.0
0
VERTEX
100
AcDbVertex
100
AcDb2dVertex
8
Layer01
10
159.367013
20
78.077782
30
0.0
0
VERTEX
100
AcDbVertex
100
AcDb2dVertex
8
Layer01
10
158.83402
20
78.082358
30
0.0
0
VERTEX
100
AcDbVertex
100
AcDb2dVertex
8
Layer01
10
158.301027
20
78.086787
30
0.0
0
VERTEX
100
AcDbVertex
100
AcDb2dVertex
8
Layer01
10
157.768034
20
78.09103
30
0.0
0
VERTEX
100
AcDbVertex
100
AcDb2dVertex
8
Layer01
10
157.235041
20
78.095045
30
0.0
0
VERTEX
100
AcDbVertex
100
AcDb2dVertex
8
Layer01
10
156.702048
20
78.098787
30
0.0
0
VERTEX
100
AcDbVertex
100
AcDb2dVertex
8
Layer01
10
156.169054
20
78.102209
30
0.0
0
VERTEX
100
AcDbVertex
100
AcDb2dVertex
8
Layer01
10
155.636061
20
78.105264
30
0.0
0
VERTEX
100
AcDbVertex
100
AcDb2dVertex
8
Layer01
10
155.103068
20
78.107904
30
0.0
0
VERTEX
100
AcDbVertex
100
AcDb2dVertex
8
Layer01
10
154.570075
20
78.110084
30
0.0
0
VERTEX
100
AcDbVertex
100
AcDb2dVertex
8
Layer01
10
154.037002
20
78.111355
30
0.0
0
VERTEX
100
AcDbVertex
100
AcDb2dVertex
8
Layer01
10
153.504009
20
78.112112
30
0.0
0
VERTEX
100
AcDbVertex
100
AcDb2dVertex
8
Layer01
10
152.971016
20
78.112345
30
0.0
0
VERTEX
100
AcDbVertex
100
AcDb2dVertex
8
Layer01
10
152.438023
20
78.112051
30
0.0
0
VERTEX
100
AcDbVertex
100
AcDb2dVertex
8
Layer01
10
151.90503
20
78.111224
30
0.0
0
VERTEX
100
AcDbVertex
100
AcDb2dVertex
8
Layer01
10
151.372037
20
78.109864
30
0.0
0
VERTEX
100
AcDbVertex
100
AcDb2dVertex
8
Layer01
10
150.839044
20
78.107971
30
0.0
0
VERTEX
100
AcDbVertex
100
AcDb2dVertex
8
Layer01
10
150.30605
20
78.105545
30
0.0
0
VERTEX
100
AcDbVertex
100
AcDb2dVertex
8
Layer01
10
149.773057
20
78.102589
30
0.0
0
VERTEX
100
AcDbVertex
100
AcDb2dVertex
8
Layer01
10
149.240064
20
78.099105
30
0.0
0
VERTEX
100
AcDbVertex
100
AcDb2dVertex
8
Layer01
10
148.707007
20
78.095192
30
0.0
0
VERTEX
100
AcDbVertex
100
AcDb2dVertex
8
Layer01
10
148.174014
20
78.090751
30
0.0
0
VERTEX
100
AcDbVertex
100
AcDb2dVertex
8
Layer01
10
147.641021
20
78.085776
30
0.0
0
VERTEX
100
AcDbVertex
100
AcDb2dVertex
8
Layer01
10
147.108028
20
78.080263
30
0.0
0
VERTEX
100
AcDbVertex
100
AcDb2dVertex
8
Layer01
10
146.575035
20
78.074207
30
0.0
0
VERTEX
100
AcDbVertex
100
AcDb2dVertex
8
Layer01
10
146.042042
20
78.067603
30
0.0
0
VERTEX
100
AcDbVertex
100
AcDb2dVertex
8
Layer01
10
145.509049
20
78.060448
30
0.0
0
VERTEX
100
AcDbVertex
100
AcDb2dVertex
8
Layer01
10
144.976056
20
78.052736
30
0.0
0
VERTEX
100
AcDbVertex
100
AcDb2dVertex
8
Layer01
10
144.443062
20
78.044463
30
0.0
0
VERTEX
100
AcDbVertex
100
AcDb2dVertex
8
Layer01
10
143.910069
20
78.035625
30
0.0
0
VERTEX
100
AcDbVertex
100
AcDb2dVertex
8
Layer01
10
143.377013
20
78.026219
30
0.0
0
VERTEX
100
AcDbVertex
100
AcDb2dVertex
8
Layer01
10
142.844019
20
78.016238
30
0.0
0
VERTEX
100
AcDbVertex
100
AcDb2dVertex
8
Layer01
10
142.311026
20
78.005677
30
0.0
0
VERTEX
100
AcDbVertex
100
AcDb2dVertex
8
Layer01
10
141.778033
20
77.99453
30
0.0
0
VERTEX
100
AcDbVertex
100
AcDb2dVertex
8
Layer01
10
141.24504
20
77.982792
30
0.0
0
VERTEX
100
AcDbVertex
100
AcDb2dVertex
8
Layer01
10
140.712047
20
77.970459
30
0.0
0
VERTEX
100
AcDbVertex
100
AcDb2dVertex
8
Layer01
10
140.179054
20
77.957524
30
0.0
0
VERTEX
100
AcDbVertex
100
AcDb2dVertex
8
Layer01
10
139.646061
20
77.943983
30
0.0
0
VERTEX
100
AcDbVertex
100
AcDb2dVertex
8
Layer01
10
139.113067
20
77.929831
30
0.0
0
VERTEX
100
AcDbVertex
100
AcDb2dVertex
8
Layer01
10
138.580074
20
77.915061
30
0.0
0
VERTEX
100
AcDbVertex
100
AcDb2dVertex
8
Layer01
10
138.047002
20
77.899665
30
0.0
0
VERTEX
100
AcDbVertex
100
AcDb2dVertex
8
Layer01
10
137.514009
20
77.883643
30
0.0
0
VERTEX
100
AcDbVertex
100
AcDb2dVertex
8
Layer01
10
136.981016
20
77.866989
30
0.0
0
VERTEX
100
AcDbVertex
100
AcDb2dVertex
8
Layer01
10
136.448022
20
77.849699
30
0.0
0
VERTEX
100
AcDbVertex
100
AcDb2dVertex
8
Layer01
10
135.915029
20
77.831766
30
0.0
0
VERTEX
100
AcDbVertex
100
AcDb2dVertex
8
Layer01
10
135.382036
20
77.813186
30
0.0
0
VERTEX
100
AcDbVertex
100
AcDb2dVertex
8
Layer01
10
134.849043
20
77.793954
30
0.0
0
VERTEX
100
AcDbVertex
100
AcDb2dVertex
8
Layer01
10
134.31605
20
77.774066
30
0.0
0
VERTEX
100
AcDbVertex
100
AcDb2dVertex
8
Layer01
10
133.783057
20
77.753514
30
0.0
0
VERTEX
100
AcDbVertex
100
AcDb2dVertex
8
Layer01
10
133.250064
20
77.732296
30
0.0
0
VERTEX
100
AcDbVertex
100
AcDb2dVertex
8
Layer01
10
132.716999
20
77.710405
30
0.0
0
VERTEX
100
AcDbVertex
100
AcDb2dVertex
8
Layer01
10
132.183998
20
77.687838
30
0.0
0
VERTEX
100
AcDbVertex
100
AcDb2dVertex
8
Layer01
10
131.650997
20
77.664589
30
0.0
0
VERTEX
100
AcDbVertex
100
AcDb2dVertex
8
Layer01
10
131.117996
20
77.640651
30
0.0
0
VERTEX
100
AcDbVertex
100
AcDb2dVertex
8
Layer01
10
130.584995
20
77.616019
30
0.0
0
VERTEX
100
AcDbVertex
100
AcDb2dVertex
8
Layer01
10
130.051994
20
77.590688
30
0.0
0
VERTEX
100
AcDbVertex
100
AcDb2dVertex
8
Layer01
10
129.518992
20
77.564652
30
0.0
0
VERTEX
100
AcDbVertex
100
AcDb2dVertex
8
Layer01
10
128.985991
20
77.537906
30
0.0
0
VERTEX
100
AcDbVertex
100
AcDb2dVertex
8
Layer01
10
128.45299
20
77.510445
30
0.0
0
VERTEX
100
AcDbVertex
100
AcDb2dVertex
8
Layer01
10
127.386996
20
77.453353
30
0.0
0
VERTEX
100
AcDbVertex
100
AcDb2dVertex
8
Layer01
10
126.853995
20
77.423711
30
0.0
0
VERTEX
100
AcDbVertex
100
AcDb2dVertex
8
Layer01
10
126.320994
20
77.393332
30
0.0
0
VERTEX
100
AcDbVertex
100
AcDb2dVertex
8
Layer01
10
125.787993
20
77.362211
30
0.0
0
VERTEX
100
AcDbVertex
100
AcDb2dVertex
8
Layer01
10
125.254992
20
77.330341
30
0.0
0
VERTEX
100
AcDbVertex
100
AcDb2dVertex
8
Layer01
10
124.721991
20
77.297718
30
0.0
0
VERTEX
100
AcDbVertex
100
AcDb2dVertex
8
Layer01
10
124.18899
20
77.264336
30
0.0
0
VERTEX
100
AcDbVertex
100
AcDb2dVertex
8
Layer01
10
123.655988
20
77.23019
30
0.0
0
VERTEX
100
AcDbVertex
100
AcDb2dVertex
8
Layer01
10
123.122987
20
77.195275
30
0.0
0
VERTEX
100
AcDbVertex
100
AcDb2dVertex
8
Layer01
10
122.057001
20
77.123114
30
0.0
0
VERTEX
100
AcDbVertex
100
AcDb2dVertex
8
Layer01
10
121.524
20
77.085858
30
0.0
0
VERTEX
100
AcDbVertex
100
AcDb2dVertex
8
Layer01
10
120.990999
20
77.04781
30
0.0
0
VERTEX
100
AcDbVertex
100
AcDb2dVertex
8
Layer01
10
120.457998
20
77.008966
30
0.0
0
VERTEX
100
AcDbVertex
100
AcDb2dVertex
8
Layer01
10
119.924997
20
76.96932
30
0.0
0
VERTEX
100
AcDbVertex
100
AcDb2dVertex
8
Layer01
10
119.391996
20
76.928867
30
0.0
0
VERTEX
100
AcDbVertex
100
AcDb2dVertex
8
Layer01
10
118.858995
20
76.887601
30
0.0
0
VERTEX
100
AcDbVertex
100
AcDb2dVertex
8
Layer01
10
118.325994
20
76.845518
30
0.0
0
VERTEX
100
AcDbVertex
100
AcDb2dVertex
8
Layer01
10
117.792993
20
76.802611
30
0.0
0
VERTEX
100
AcDbVertex
100
AcDb2dVertex
8
Layer01
10
116.726998
20
76.714281
30
0.0
0
VERTEX
100
AcDbVertex
100
AcDb2dVertex
8
Layer01
10
116.193997
20
76.668848
30
0.0
0
VERTEX
100
AcDbVertex
100
AcDb2dVertex
8
Layer01
10
115.660996
20
76.622574
30
0.0
0
VERTEX
100
AcDbVertex
100
AcDb2dVertex
8
Layer01
10
115.127995
20
76.575456
30
0.0
0
VERTEX
100
AcDbVertex
100
AcDb2dVertex
8
Layer01
10
114.594994
20
76.527488
30
0.0
0
VERTEX
100
AcDbVertex
100
AcDb2dVertex
8
Layer01
10
114.061993
20
76.478667
30
0.0
0
VERTEX
100
AcDbVertex
100
AcDb2dVertex
8
Layer01
10
113.528992
20
76.428988
30
0.0
0
VERTEX
100
AcDbVertex
100
AcDb2dVertex
8
Layer01
10
112.995991
20
76.378447
30
0.0
0
VERTEX
100
AcDbVertex
100
AcDb2dVertex
8
Layer01
10
112.46299
20
76.327036
30
0.0
0
VERTEX
100
AcDbVertex
100
AcDb2dVertex
8
Layer01
10
111.396995
20
76.2217
30
0.0
0
VERTEX
100
AcDbVertex
100
AcDb2dVertex
8
Layer01
10
110.863994
20
76.167749
30
0.0
0
VERTEX
100
AcDbVertex
100
AcDb2dVertex
8
Layer01
10
110.330993
20
76.112884
30
0.0
0
VERTEX
100
AcDbVertex
100
AcDb2dVertex
8
Layer01
10
109.797992
20
76.057085
30
0.0
0
VERTEX
100
AcDbVertex
100
AcDb2dVertex
8
Layer01
10
109.264991
20
76.000336
30
0.0
0
VERTEX
100
AcDbVertex
100
AcDb2dVertex
8
Layer01
10
108.73199
20
75.94262
30
0.0
0
VERTEX
100
AcDbVertex
100
AcDb2dVertex
8
Layer01
10
108.198989
20
75.883921
30
0.0
0
VERTEX
100
AcDbVertex
100
AcDb2dVertex
8
Layer01
10
107.665988
20
75.824223
30
0.0
0
VERTEX
100
AcDbVertex
100
AcDb2dVertex
8
Layer01
10
107.132987
20
75.763512
30
0.0
0
VERTEX
100
AcDbVertex
100
AcDb2dVertex
8
Layer01
10
106.067001
20
75.638811
30
0.0
0
VERTEX
100
AcDbVertex
100
AcDb2dVertex
8
Layer01
10
105.533999
20
75.574814
30
0.0
0
VERTEX
100
AcDbVertex
100
AcDb2dVertex
8
Layer01
10
105.000998
20
75.509792
30
0.0
0
VERTEX
100
AcDbVertex
100
AcDb2dVertex
8
Layer01
10
104.467997
20
75.443753
30
0.0
0
VERTEX
100
AcDbVertex
100
AcDb2dVertex
8
Layer01
10
103.934996
20
75.376708
30
0.0
0
VERTEX
100
AcDbVertex
100
AcDb2dVertex
8
Layer01
10
103.401995
20
75.308665
30
0.0
0
VERTEX
100
AcDbVertex
100
AcDb2dVertex
8
Layer01
10
102.868994
20
75.239635
30
0.0
0
VERTEX
100
AcDbVertex
100
AcDb2dVertex
8
Layer01
10
102.335993
20
75.169629
30
0.0
0
VERTEX
100
AcDbVertex
100
AcDb2dVertex
8
Layer01
10
101.802992
20
75.098658
30
0.0
0
VERTEX
100
AcDbVertex
100
AcDb2dVertex
8
Layer01
10
100.736998
20
74.953996
30
0.0
0
VERTEX
100
AcDbVertex
100
AcDb2dVertex
8
Layer01
10
100.203997
20
74.880311
30
0.0
0
VERTEX
100
AcDbVertex
100
AcDb2dVertex
8
Layer01
10
99.670995
20
74.805674
30
0.0
0
VERTEX
100
AcDbVertex
100
AcDb2dVertex
8
Layer01
10
99.137994
20
74.73008
30
0.0
0
VERTEX
100
AcDbVertex
100
AcDb2dVertex
8
Layer01
10
98.604993
20
74.653526
30
0.0
0
VERTEX
100
AcDbVertex
100
AcDb2dVertex
8
Layer01
10
98.071992
20
74.576004
30
0.0
0
VERTEX
100
AcDbVertex
100
AcDb2dVertex
8
Layer01
10
97.538991
20
74.497509
30
0.0
0
VERTEX
100
AcDbVertex
100
AcDb2dVertex
8
Layer01
10
97.00599
20
74.418035
30
0.0
0
VERTEX
100
AcDbVertex
100
AcDb2dVertex
8
Layer01
10
96.472989
20
74.337574
30
0.0
0
VERTEX
100
AcDbVertex
100
AcDb2dVertex
8
Layer01
10
95.407003
20
74.173629
30
0.0
0
VERTEX
100
AcDbVertex
100
AcDb2dVertex
8
Layer01
10
94.874002
20
74.09013
30
0.0
0
VERTEX
100
AcDbVertex
100
AcDb2dVertex
8
Layer01
10
94.341001
20
74.005621
30
0.0
0
VERTEX
100
AcDbVertex
100
AcDb2dVertex
8
Layer01
10
93.807999
20
73.920096
30
0.0
0
VERTEX
100
AcDbVertex
100
AcDb2dVertex
8
Layer01
10
93.274998
20
73.833551
30
0.0
0
VERTEX
100
AcDbVertex
100
AcDb2dVertex
8
Layer01
10
92.741997
20
73.745982
30
0.0
0
VERTEX
100
AcDbVertex
100
AcDb2dVertex
8
Layer01
10
92.208996
20
73.657382
30
0.0
0
VERTEX
100
AcDbVertex
100
AcDb2dVertex
8
Layer01
10
91.675995
20
73.567748
30
0.0
0
VERTEX
100
AcDbVertex
100
AcDb2dVertex
8
Layer01
10
91.142994
20
73.477075
30
0.0
0
VERTEX
100
AcDbVertex
100
AcDb2dVertex
8
Layer01
10
90.077
20
73.292451
30
0.0
0
VERTEX
100
AcDbVertex
100
AcDb2dVertex
8
Layer01
10
89.543999
20
73.1985
30
0.0
0
VERTEX
100
AcDbVertex
100
AcDb2dVertex
8
Layer01
10
89.010998
20
73.103511
30
0.0
0
VERTEX
100
AcDbVertex
100
AcDb2dVertex
8
Layer01
10
88.477997
20
73.007487
30
0.0
0
VERTEX
100
AcDbVertex
100
AcDb2dVertex
8
Layer01
10
87.944996
20
72.910432
30
0.0
0
VERTEX
100
AcDbVertex
100
AcDb2dVertex
8
Layer01
10
87.411994
20
72.812348
30
0.0
0
VERTEX
100
AcDbVertex
100
AcDb2dVertex
8
Layer01
10
86.878993
20
72.713232
30
0.0
0
VERTEX
100
AcDbVertex
100
AcDb2dVertex
8
Layer01
10
86.345992
20
72.613082
30
0.0
0
VERTEX
100
AcDbVertex
100
AcDb2dVertex
8
Layer01
10
85.812991
20
72.51189
30
0.0
0
VERTEX
100
AcDbVertex
100
AcDb2dVertex
8
Layer01
10
84.746997
20
72.306965
30
0.0
0
VERTEX
100
AcDbVertex
100
AcDb2dVertex
8
Layer01
10
84.213996
20
72.203151
30
0.0
0
VERTEX
100
AcDbVertex
100
AcDb2dVertex
8
Layer01
10
83.680995
20
72.098138
30
0.0
0
VERTEX
100
AcDbVertex
100
AcDb2dVertex
8
Layer01
10
83.147994
20
71.991856
30
0.0
0
VERTEX
100
AcDbVertex
100
AcDb2dVertex
8
Layer01
10
82.614993
20
71.884236
30
0.0
0
VERTEX
100
AcDbVertex
100
AcDb2dVertex
8
Layer01
10
82.081992
20
71.775209
30
0.0
0
VERTEX
100
AcDbVertex
100
AcDb2dVertex
8
Layer01
10
81.548991
20
71.664712
30
0.0
0
VERTEX
100
AcDbVertex
100
AcDb2dVertex
8
Layer01
10
81.015989
20
71.552683
30
0.0
0
VERTEX
100
AcDbVertex
100
AcDb2dVertex
8
Layer01
10
80.482988
20
71.439067
30
0.0
0
VERTEX
100
AcDbVertex
100
AcDb2dVertex
8
Layer01
10
79.417002
20
71.205897
30
0.0
0
VERTEX
100
AcDbVertex
100
AcDb2dVertex
8
Layer01
10
78.884001
20
71.086347
30
0.0
0
VERTEX
100
AcDbVertex
100
AcDb2dVertex
8
Layer01
10
78.351
20
70.96523
30
0.0
0
VERTEX
100
AcDbVertex
100
AcDb2dVertex
8
Layer01
10
77.817999
20
70.84261
30
0.0
0
VERTEX
100
AcDbVertex
100
AcDb2dVertex
8
Layer01
10
77.284998
20
70.718554
30
0.0
0
VERTEX
100
AcDbVertex
100
AcDb2dVertex
8
Layer01
10
76.751997
20
70.593137
30
0.0
0
VERTEX
100
AcDbVertex
100
AcDb2dVertex
8
Layer01
10
76.218996
20
70.466434
30
0.0
0
VERTEX
100
AcDbVertex
100
AcDb2dVertex
8
Layer01
10
75.685995
20
70.338522
30
0.0
0
VERTEX
100
AcDbVertex
100
AcDb2dVertex
8
Layer01
10
75.152993
20
70.209477
30
0.0
0
VERTEX
100
AcDbVertex
100
AcDb2dVertex
8
Layer01
10
74.086999
20
69.948954
30
0.0
0
VERTEX
100
AcDbVertex
100
AcDb2dVertex
8
Layer01
10
73.553998
20
69.817557
30
0.0
0
VERTEX
100
AcDbVertex
100
AcDb2dVertex
8
Layer01
10
73.020997
20
69.685192
30
0.0
0
VERTEX
100
AcDbVertex
100
AcDb2dVertex
8
Layer01
10
72.487996
20
69.551861
30
0.0
0
VERTEX
100
AcDbVertex
100
AcDb2dVertex
8
Layer01
10
71.954995
20
69.417565
30
0.0
0
VERTEX
100
AcDbVertex
100
AcDb2dVertex
8
Layer01
10
71.421994
20
69.282299
30
0.0
0
VERTEX
100
AcDbVertex
100
AcDb2dVertex
8
Layer01
10
70.888993
20
69.146056
30
0.0
0
VERTEX
100
AcDbVertex
100
AcDb2dVertex
8
Layer01
10
70.355992
20
69.008827
30
0.0
0
VERTEX
100
AcDbVertex
100
AcDb2dVertex
8
Layer01
10
69.822991
20
68.8706
30
0.0
0
VERTEX
100
AcDbVertex
100
AcDb2dVertex
8
Layer01
10
68.756996
20
68.590934
30
0.0
0
VERTEX
100
AcDbVertex
100
AcDb2dVertex
8
Layer01
10
68.223995
20
68.449475
30
0.0
0
VERTEX
100
AcDbVertex
100
AcDb2dVertex
8
Layer01
10
67.690994
20
68.306981
30
0.0
0
VERTEX
100
AcDbVertex
100
AcDb2dVertex
8
Layer01
10
67.157993
20
68.163447
30
0.0
0
VERTEX
100
AcDbVertex
100
AcDb2dVertex
8
Layer01
10
66.624992
20
68.018867
30
0.0
0
VERTEX
100
AcDbVertex
100
AcDb2dVertex
8
Layer01
10
66.091991
20
67.873233
30
0.0
0
VERTEX
100
AcDbVertex
100
AcDb2dVertex
8
Layer01
10
65.55899
20
67.726539
30
0.0
0
VERTEX
100
AcDbVertex
100
AcDb2dVertex
8
Layer01
10
65.025989
20
67.578775
30
0.0
0
VERTEX
100
AcDbVertex
100
AcDb2dVertex
8
Layer01
10
64.492988
20
67.429932
30
0.0
0
VERTEX
100
AcDbVertex
100
AcDb2dVertex
8
Layer01
10
63.426997
20
67.129016
30
0.0
0
VERTEX
100
AcDbVertex
100
AcDb2dVertex
8
Layer01
10
62.893996
20
66.976911
30
0.0
0
VERTEX
100
AcDbVertex
100
AcDb2dVertex
8
Layer01
10
62.360995
20
66.823673
30
0.0
0
VERTEX
100
AcDbVertex
100
AcDb2dVertex
8
Layer01
10
61.827994
20
66.669283
30
0.0
0
VERTEX
100
AcDbVertex
100
AcDb2dVertex
8
Layer01
10
61.294993
20
66.513724
30
0.0
0
VERTEX
100
AcDbVertex
100
AcDb2dVertex
8
Layer01
10
60.761992
20
66.356977
30
0.0
0
VERTEX
100
AcDbVertex
100
AcDb2dVertex
8
Layer01
10
60.228991
20
66.199023
30
0.0
0
VERTEX
100
AcDbVertex
100
AcDb2dVertex
8
Layer01
10
59.69599
20
66.039842
30
0.0
0
VERTEX
100
AcDbVertex
100
AcDb2dVertex
8
Layer01
10
59.162989
20
65.879416
30
0.0
0
VERTEX
100
AcDbVertex
100
AcDb2dVertex
8
Layer01
10
58.096999
20
65.5545
30
0.0
0
VERTEX
100
AcDbVertex
100
AcDb2dVertex
8
Layer01
10
57.563998
20
65.389988
30
0.0
0
VERTEX
100
AcDbVertex
100
AcDb2dVertex
8
Layer01
10
57.030996
20
65.22419
30
0.0
0
VERTEX
100
AcDbVertex
100
AcDb2dVertex
8
Layer01
10
56.497995
20
65.057105
30
0.0
0
VERTEX
100
AcDbVertex
100
AcDb2dVertex
8
Layer01
10
55.964994
20
64.888728
30
0.0
0
VERTEX
100
AcDbVertex
100
AcDb2dVertex
8
Layer01
10
55.431993
20
64.719055
30
0.0
0
VERTEX
100
AcDbVertex
100
AcDb2dVertex
8
Layer01
10
54.898992
20
64.548075
30
0.0
0
VERTEX
100
AcDbVertex
100
AcDb2dVertex
8
Layer01
10
54.365991
20
64.375777
30
0.0
0
VERTEX
100
AcDbVertex
100
AcDb2dVertex
8
Layer01
10
53.83299
20
64.202144
30
0.0
0
VERTEX
100
AcDbVertex
100
AcDb2dVertex
8
Layer01
10
52.767
20
63.851281
30
0.0
0
VERTEX
100
AcDbVertex
100
AcDb2dVertex
8
Layer01
10
52.233999
20
63.673949
30
0.0
0
VERTEX
100
AcDbVertex
100
AcDb2dVertex
8
Layer01
10
51.700998
20
63.495086
30
0.0
0
VERTEX
100
AcDbVertex
100
AcDb2dVertex
8
Layer01
10
51.167996
20
63.314611
30
0.0
0
VERTEX
100
AcDbVertex
100
AcDb2dVertex
8
Layer01
10
50.634995
20
63.13244
30
0.0
0
VERTEX
100
AcDbVertex
100
AcDb2dVertex
8
Layer01
10
50.101994
20
62.948485
30
0.0
0
VERTEX
100
AcDbVertex
100
AcDb2dVertex
8
Layer01
10
49.568993
20
62.762659
30
0.0
0
VERTEX
100
AcDbVertex
100
AcDb2dVertex
8
Layer01
10
49.035992
20
62.57487
30
0.0
0
VERTEX
100
AcDbVertex
100
AcDb2dVertex
8
Layer01
10
48.502991
20
62.38503
30
0.0
0
VERTEX
100
AcDbVertex
100
AcDb2dVertex
8
Layer01
10
47.437001
20
61.998452
30
0.0
0
VERTEX
100
AcDbVertex
100
AcDb2dVertex
8
Layer01
10
46.904
20
61.801567
30
0.0
0
VERTEX
100
AcDbVertex
100
AcDb2dVertex
8
Layer01
10
46.370999
20
61.602345
30
0.0
0
VERTEX
100
AcDbVertex
100
AcDb2dVertex
8
Layer01
10
45.837998
20
61.400732
30
0.0
0
VERTEX
100
AcDbVertex
100
AcDb2dVertex
8
Layer01
10
45.304997
20
61.196679
30
0.0
0
VERTEX
100
AcDbVertex
100
AcDb2dVertex
8
Layer01
10
44.771995
20
60.990136
30
0.0
0
VERTEX
100
AcDbVertex
100
AcDb2dVertex
8
Layer01
10
44.238994
20
60.781057
30
0.0
0
VERTEX
100
AcDbVertex
100
AcDb2dVertex
8
Layer01
10
43.705993
20
60.569392
30
0.0
0
VERTEX
100
AcDbVertex
100
AcDb2dVertex
8
Layer01
10
43.172992
20
60.355096
30
0.0
0
VERTEX
100
AcDbVertex
100
AcDb2dVertex
8
Layer01
10
42.106998
20
59.918487
30
0.0
0
VERTEX
100
AcDbVertex
100
AcDb2dVertex
8
Layer01
10
41.573997
20
59.69607
30
0.0
0
VERTEX
100
AcDbVertex
100
AcDb2dVertex
8
Layer01
10
41.040996
20
59.470818
30
0.0
0
VERTEX
100
AcDbVertex
100
AcDb2dVertex
8
Layer01
10
40.507995
20
59.242677
30
0.0
0
VERTEX
100
AcDbVertex
100
AcDb2dVertex
8
Layer01
10
39.974994
20
59.01159
30
0.0
0
VERTEX
100
AcDbVertex
100
AcDb2dVertex
8
Layer01
10
39.441993
20
58.7775
30
0.0
0
VERTEX
100
AcDbVertex
100
AcDb2dVertex
8
Layer01
10
38.908991
20
58.540349
30
0.0
0
VERTEX
100
AcDbVertex
100
AcDb2dVertex
8
Layer01
10
38.37599
20
58.300076
30
0.0
0
VERTEX
100
AcDbVertex
100
AcDb2dVertex
8
Layer01
10
37.842989
20
58.056621
30
0.0
0
VERTEX
100
AcDbVertex
100
AcDb2dVertex
8
Layer01
10
36.776999
20
57.560309
30
0.0
0
VERTEX
100
AcDbVertex
100
AcDb2dVertex
8
Layer01
10
36.243998
20
57.307285
30
0.0
0
VERTEX
100
AcDbVertex
100
AcDb2dVertex
8
Layer01
10
35.710997
20
57.050759
30
0.0
0
VERTEX
100
AcDbVertex
100
AcDb2dVertex
8
Layer01
10
35.177996
20
56.790635
30
0.0
0
VERTEX
100
AcDbVertex
100
AcDb2dVertex
8
Layer01
10
34.644995
20
56.526817
30
0.0
0
VERTEX
100
AcDbVertex
100
AcDb2dVertex
8
Layer01
10
34.111994
20
56.259213
30
0.0
0
VERTEX
100
AcDbVertex
100
AcDb2dVertex
8
Layer01
10
33.578993
20
55.987734
30
0.0
0
VERTEX
100
AcDbVertex
100
AcDb2dVertex
8
Layer01
10
33.045994
20
55.712297
30
0.0
0
VERTEX
100
AcDbVertex
100
AcDb2dVertex
8
Layer01
10
32.512994
20
55.432823
30
0.0
0
VERTEX
100
AcDbVertex
100
AcDb2dVertex
8
Layer01
10
31.447
20
54.860234
30
0.0
0
VERTEX
100
AcDbVertex
100
AcDb2dVertex
8
Layer01
10
30.914001
20
54.567091
30
0.0
0
VERTEX
100
AcDbVertex
100
AcDb2dVertex
8
Layer01
10
30.381002
20
54.269863
30
0.0
0
VERTEX
100
AcDbVertex
100
AcDb2dVertex
8
Layer01
10
29.848003
20
53.968597
30
0.0
0
VERTEX
100
AcDbVertex
100
AcDb2dVertex
8
Layer01
10
29.315004
20
53.663343
30
0.0
0
VERTEX
100
AcDbVertex
100
AcDb2dVertex
8
Layer01
10
28.782005
20
53.354152
30
0.0
0
VERTEX
100
AcDbVertex
100
AcDb2dVertex
8
Layer01
10
28.249006
20
53.041065
30
0.0
0
VERTEX
100
AcDbVertex
100
AcDb2dVertex
8
Layer01
10
27.716007
20
52.724119
30
0.0
0
VERTEX
100
AcDbVertex
100
AcDb2dVertex
8
Layer01
10
27.183007
20
52.403341
30
0.0
0
VERTEX
100
AcDbVertex
100
AcDb2dVertex
8
Layer01
10
26.650008
20
52.078742
30
0.0
0
VERTEX
100
AcDbVertex
100
AcDb2dVertex
8
Layer01
10
26.117001
20
51.751096
30
0.0
0
VERTEX
100
AcDbVertex
100
AcDb2dVertex
8
Layer01
10
25.584002
20
51.419524
30
0.0
0
VERTEX
100
AcDbVertex
100
AcDb2dVertex
8
Layer01
10
25.051003
20
51.083923
30
0.0
0
VERTEX
100
AcDbVertex
100
AcDb2dVertex
8
Layer01
10
24.518004
20
50.744182
30
0.0
0
VERTEX
100
AcDbVertex
100
AcDb2dVertex
8
Layer01
10
23.985005
20
50.400176
30
0.0
0
VERTEX
100
AcDbVertex
100
AcDb2dVertex
8
Layer01
10
23.452006
20
50.051766
30
0.0
0
VERTEX
100
AcDbVertex
100
AcDb2dVertex
8
Layer01
10
22.919007
20
49.698801
30
0.0
0
VERTEX
100
AcDbVertex
100
AcDb2dVertex
8
Layer01
10
22.386008
20
49.341118
30
0.0
0
VERTEX
100
AcDbVertex
100
AcDb2dVertex
8
Layer01
10
21.853009
20
48.978542
30
0.0
0
VERTEX
100
AcDbVertex
100
AcDb2dVertex
8
Layer01
10
21.320009
20
48.610886
30
0.0
0
VERTEX
100
AcDbVertex
100
AcDb2dVertex
8
Layer01
10
21.053499
20
48.425003
30
0.0
0
VERTEX
100
AcDbVertex
100
AcDb2dVertex
8
Layer01
10
20.786998
20
48.237797
30
0.0
0
VERTEX
100
AcDbVertex
100
AcDb2dVertex
8
Layer01
10
20.520498
20
48.049239
30
0.0
0
VERTEX
100
AcDbVertex
100
AcDb2dVertex
8
Layer01
10
20.253997
20
47.859301
30
0.0
0
VERTEX
100
AcDbVertex
100
AcDb2dVertex
8
Layer01
10
19.987497
20
47.667959
30
0.0
0
VERTEX
100
AcDbVertex
100
AcDb2dVertex
8
Layer01
10
19.720996
20
47.475183
30
0.0
0
VERTEX
100
AcDbVertex
100
AcDb2dVertex
8
Layer01
10
19.454496
20
47.280945
30
0.0
0
VERTEX
100
AcDbVertex
100
AcDb2dVertex
8
Layer01
10
19.187995
20
47.085213
30
0.0
0
VERTEX
100
AcDbVertex
100
AcDb2dVertex
8
Layer01
10
18.921495
20
46.887957
30
0.0
0
VERTEX
100
AcDbVertex
100
AcDb2dVertex
8
Layer01
10
18.3885
20
46.488236
30
0.0
0
VERTEX
100
AcDbVertex
100
AcDb2dVertex
8
Layer01
10
18.121999
20
46.285747
30
0.0
0
VERTEX
100
AcDbVertex
100
AcDb2dVertex
8
Layer01
10
17.855498
20
46.081674
30
0.0
0
VERTEX
100
AcDbVertex
100
AcDb2dVertex
8
Layer01
10
17.588998
20
45.876006
30
0.0
0
VERTEX
100
AcDbVertex
100
AcDb2dVertex
8
Layer01
10
17.322497
20
45.668724
30
0.0
0
VERTEX
100
AcDbVertex
100
AcDb2dVertex
8
Layer01
10
17.055997
20
45.459801
30
0.0
0
VERTEX
100
AcDbVertex
100
AcDb2dVertex
8
Layer01
10
16.789496
20
45.2492
30
0.0
0
VERTEX
100
AcDbVertex
100
AcDb2dVertex
8
Layer01
10
16.522997
20
45.036878
30
0.0
0
VERTEX
100
AcDbVertex
100
AcDb2dVertex
8
Layer01
10
16.256497
20
44.822775
30
0.0
0
VERTEX
100
AcDbVertex
100
AcDb2dVertex
8
Layer01
10
15.7235
20
44.3904
30
0.0
0
VERTEX
100
AcDbVertex
100
AcDb2dVertex
8
Layer01
10
15.457001
20
44.171835
30
0.0
0
VERTEX
100
AcDbVertex
100
AcDb2dVertex
8
Layer01
10
15.190501
20
43.950911
30
0.0
0
VERTEX
100
AcDbVertex
100
AcDb2dVertex
8
Layer01
10
14.924001
20
43.727401
30
0.0
0
VERTEX
100
AcDbVertex
100
AcDb2dVertex
8
Layer01
10
14.657502
20
43.501073
30
0.0
0
VERTEX
100
AcDbVertex
100
AcDb2dVertex
8
Layer01
10
14.391002
20
43.271695
30
0.0
0
VERTEX
100
AcDbVertex
100
AcDb2dVertex
8
Layer01
10
14.124503
20
43.039038
30
0.0
0
VERTEX
100
AcDbVertex
100
AcDb2dVertex
8
Layer01
10
13.858003
20
42.802876
30
0.0
0
VERTEX
100
AcDbVertex
100
AcDb2dVertex
8
Layer01
10
13.591504
20
42.562995
30
0.0
0
VERTEX
100
AcDbVertex
100
AcDb2dVertex
8
Layer01
10
13.325004
20
42.319191
30
0.0
0
VERTEX
100
AcDbVertex
100
AcDb2dVertex
8
Layer01
10
13.058501
20
42.069127
30
0.0
0
VERTEX
100
AcDbVertex
100
AcDb2dVertex
8
Layer01
10
12.792001
20
41.81495
30
0.0
0
VERTEX
100
AcDbVertex
100
AcDb2dVertex
8
Layer01
10
12.525502
20
41.556664
30
0.0
0
VERTEX
100
AcDbVertex
100
AcDb2dVertex
8
Layer01
10
12.259002
20
41.294291
30
0.0
0
VERTEX
100
AcDbVertex
100
AcDb2dVertex
8
Layer01
10
11.992502
20
41.027862
30
0.0
0
VERTEX
100
AcDbVertex
100
AcDb2dVertex
8
Layer01
10
11.726003
20
40.757415
30
0.0
0
VERTEX
100
AcDbVertex
100
AcDb2dVertex
8
Layer01
10
11.459503
20
40.482989
30
0.0
0
VERTEX
100
AcDbVertex
100
AcDb2dVertex
8
Layer01
10
11.193004
20
40.204626
30
0.0
0
VERTEX
100
AcDbVertex
100
AcDb2dVertex
8
Layer01
10
10.926504
20
39.922363
30
0.0
0
VERTEX
100
AcDbVertex
100
AcDb2dVertex
8
Layer01
10
10.660005
20
39.63623
30
0.0
0
VERTEX
100
AcDbVertex
100
AcDb2dVertex
8
Layer01
10
10.3935
20
39.347322
30
0.0
0
VERTEX
100
AcDbVertex
100
AcDb2dVertex
8
Layer01
10
10.127001
20
39.054499
30
0.0
0
VERTEX
100
AcDbVertex
100
AcDb2dVertex
8
Layer01
10
9.860501
20
38.757673
30
0.0
0
VERTEX
100
AcDbVertex
100
AcDb2dVertex
8
Layer01
10
9.594002
20
38.456746
30
0.0
0
VERTEX
100
AcDbVertex
100
AcDb2dVertex
8
Layer01
10
9.327502
20
38.151609
30
0.0
0
VERTEX
100
AcDbVertex
100
AcDb2dVertex
8
Layer01
10
9.061002
20
37.84214
30
0.0
0
VERTEX
100
AcDbVertex
100
AcDb2dVertex
8
Layer01
10
8.794503
20
37.528207
30
0.0
0
VERTEX
100
AcDbVertex
100
AcDb2dVertex
8
Layer01
10
8.528003
20
37.209663
30
0.0
0
VERTEX
100
AcDbVertex
100
AcDb2dVertex
8
Layer01
10
8.261503
20
36.886351
30
0.0
0
VERTEX
100
AcDbVertex
100
AcDb2dVertex
8
Layer01
10
7.995003
20
36.558101
30
0.0
0
VERTEX
100
AcDbVertex
100
AcDb2dVertex
8
Layer01
10
7.995
20
36.558097
30
0.0
0
VERTEX
100
AcDbVertex
100
AcDb2dVertex
8
Layer01
10
7.707993
20
36.198147
30
0.0
0
VERTEX
100
AcDbVertex
100
AcDb2dVertex
8
Layer01
10
7.425778
20
35.838197
30
0.0
0
VERTEX
100
AcDbVertex
100
AcDb2dVertex
8
Layer01
10
7.148258
20
35.478247
30
0.0
0
VERTEX
100
AcDbVertex
100
AcDb2dVertex
8
Layer01
10
6.875341
20
35.118297
30
0.0
0
VERTEX
100
AcDbVertex
100
AcDb2dVertex
8
Layer01
10
6.606939
20
34.758348
30
0.0
0
VERTEX
100
AcDbVertex
100
AcDb2dVertex
8
Layer01
10
6.342969
20
34.398398
30
0.0
0
VERTEX
100
AcDbVertex
100
AcDb2dVertex
8
Layer01
10
6.083355
20
34.038448
30
0.0
0
VERTEX
100
AcDbVertex
100
AcDb2dVertex
8
Layer01
10
5.828029
20
33.678498
30
0.0
0
VERTEX
100
AcDbVertex
100
AcDb2dVertex
8
Layer01
10
5.576931
20
33.318548
30
0.0
0
VERTEX
100
AcDbVertex
100
AcDb2dVertex
8
Layer01
10
5.330006
20
32.958596
30
0.0
0
VERTEX
100
AcDbVertex
100
AcDb2dVertex
8
Layer01
10
5.33
20
32.958588
30
0.0
0
VERTEX
100
AcDbVertex
100
AcDb2dVertex
8
Layer01
10
5.035748
20
32.522291
30
0.0
0
VERTEX
100
AcDbVertex
100
AcDb2dVertex
8
Layer01
10
4.747506
20
32.085994
30
0.0
0
VERTEX
100
AcDbVertex
100
AcDb2dVertex
8
Layer01
10
4.465284
20
31.649696
30
0.0
0
VERTEX
100
AcDbVertex
100
AcDb2dVertex
8
Layer01
10
4.189122
20
31.213399
30
0.0
0
VERTEX
100
AcDbVertex
100
AcDb2dVertex
8
Layer01
10
3.919084
20
30.777101
30
0.0
0
VERTEX
100
AcDbVertex
100
AcDb2dVertex
8
Layer01
10
3.655265
20
30.340804
30
0.0
0
VERTEX
100
AcDbVertex
100
AcDb2dVertex
8
Layer01
10
3.397784
20
29.904507
30
0.0
0
VERTEX
100
AcDbVertex
100
AcDb2dVertex
8
Layer01
10
3.14679
20
29.468209
30
0.0
0
VERTEX
100
AcDbVertex
100
AcDb2dVertex
8
Layer01
10
2.902461
20
29.031912
30
0.0
0
VERTEX
100
AcDbVertex
100
AcDb2dVertex
8
Layer01
10
2.665002
20
28.595614
30
0.0
0
VERTEX
100
AcDbVertex
100
AcDb2dVertex
8
Layer01
10
2.665
20
28.59561
30
0.0
0
VERTEX
100
AcDbVertex
100
AcDb2dVertex
8
Layer01
10
2.271416
20
27.833622
30
0.0
0
VERTEX
100
AcDbVertex
100
AcDb2dVertex
8
Layer01
10
1.901116
20
27.071634
30
0.0
0
VERTEX
100
AcDbVertex
100
AcDb2dVertex
8
Layer01
10
1.555273
20
26.309646
30
0.0
0
VERTEX
100
AcDbVertex
100
AcDb2dVertex
8
Layer01
10
1.235379
20
25.547658
30
0.0
0
VERTEX
100
AcDbVertex
100
AcDb2dVertex
8
Layer01
10
0.943305
20
24.78567
30
0.0
0
VERTEX
100
AcDbVertex
100
AcDb2dVertex
8
Layer01
10
0.681362
20
24.023682
30
0.0
0
VERTEX
100
AcDbVertex
100
AcDb2dVertex
8
Layer01
10
0.452363
20
23.261694
30
0.0
0
VERTEX
100
AcDbVertex
100
AcDb2dVertex
8
Layer01
10
0.259685
20
22.499706
30
0.0
0
VERTEX
100
AcDbVertex
100
AcDb2dVertex
8
Layer01
10
0.107334
20
21.737718
30
0.0
0
VERTEX
100
AcDbVertex
100
AcDb2dVertex
8
Layer01
10
0.0
20
20.975736
30
0.0
0
VERTEX
100
AcDbVertex
100
AcDb2dVertex
8
Layer01
10
-0.022021
20
20.752414
30
0.0
0
VERTEX
100
AcDbVertex
100
AcDb2dVertex
8
Layer01
10
-0.039591
20
20.529091
30
0.0
0
VERTEX
100
AcDbVertex
100
AcDb2dVertex
8
Layer01
10
-0.052555
20
20.305769
30
0.0
0
VERTEX
100
AcDbVertex
100
AcDb2dVertex
8
Layer01
10
-0.060754
20
20.082447
30
0.0
0
VERTEX
100
AcDbVertex
100
AcDb2dVertex
8
Layer01
10
-0.064019
20
19.859125
30
0.0
0
VERTEX
100
AcDbVertex
100
AcDb2dVertex
8
Layer01
10
-0.062177
20
19.635803
30
0.0
0
VERTEX
100
AcDbVertex
100
AcDb2dVertex
8
Layer01
10
-0.055047
20
19.412481
30
0.0
0
VERTEX
100
AcDbVertex
100
AcDb2dVertex
8
Layer01
10
-0.042439
20
19.189159
30
0.0
0
VERTEX
100
AcDbVertex
100
AcDb2dVertex
8
Layer01
10
-0.024158
20
18.965837
30
0.0
0
VERTEX
100
AcDbVertex
100
AcDb2dVertex
8
Layer01
10
0.0
20
18.742518
30
0.0
0
VERTEX
100
AcDbVertex
100
AcDb2dVertex
8
Layer01
10
0.08357
20
18.238898
30
0.0
0
VERTEX
100
AcDbVertex
100
AcDb2dVertex
8
Layer01
10
0.200922
20
17.735278
30
0.0
0
VERTEX
100
AcDbVertex
100
AcDb2dVertex
8
Layer01
10
0.353888
20
17.231657
30
0.0
0
VERTEX
100
AcDbVertex
100
AcDb2dVertex
8
Layer01
10
0.544643
20
16.728037
30
0.0
0
VERTEX
100
AcDbVertex
100
AcDb2dVertex
8
Layer01
10
0.775773
20
16.224415
30
0.0
0
VERTEX
100
AcDbVertex
100
AcDb2dVertex
8
Layer01
10
1.050344
20
15.720794
30
0.0
0
VERTEX
100
AcDbVertex
100
AcDb2dVertex
8
Layer01
10
1.37197
20
15.217172
30
0.0
0
VERTEX
100
AcDbVertex
100
AcDb2dVertex
8
Layer01
10
1.744884
20
14.713551
30
0.0
0
VERTEX
100
AcDbVertex
100
AcDb2dVertex
8
Layer01
10
2.174003
20
14.209929
30
0.0
0
VERTEX
100
AcDbVertex
100
AcDb2dVertex
8
Layer01
10
2.665
20
13.706308
30
0.0
0
VERTEX
100
AcDbVertex
100
AcDb2dVertex
8
Layer01
10
2.665
20
13.706308
30
0.0
0
VERTEX
100
AcDbVertex
100
AcDb2dVertex
8
Layer01
10
2.863718
20
13.508464
30
0.0
0
VERTEX
100
AcDbVertex
100
AcDb2dVertex
8
Layer01
10
3.076235
20
13.31062
30
0.0
0
VERTEX
100
AcDbVertex
100
AcDb2dVertex
8
Layer01
10
3.303175
20
13.112775
30
0.0
0
VERTEX
100
AcDbVertex
100
AcDb2dVertex
8
Layer01
10
3.545089
20
12.914931
30
0.0
0
VERTEX
100
AcDbVertex
100
AcDb2dVertex
8
Layer01
10
3.802442
20
12.717087
30
0.0
0
VERTEX
100
AcDbVertex
100
AcDb2dVertex
8
Layer01
10
4.075606
20
12.519243
30
0.0
0
VERTEX
100
AcDbVertex
100
AcDb2dVertex
8
Layer01
10
4.364851
20
12.321399
30
0.0
0
VERTEX
100
AcDbVertex
100
AcDb2dVertex
8
Layer01
10
4.670333
20
12.123555
30
0.0
0
VERTEX
100
AcDbVertex
100
AcDb2dVertex
8
Layer01
10
4.992082
20
11.925711
30
0.0
0
VERTEX
100
AcDbVertex
100
AcDb2dVertex
8
Layer01
10
5.329998
20
11.727866
30
0.0
0
VERTEX
100
AcDbVertex
100
AcDb2dVertex
8
Layer01
10
5.33
20
11.727865
30
0.0
0
VERTEX
100
AcDbVertex
100
AcDb2dVertex
8
Layer01
10
5.567337
20
11.594424
30
0.0
0
VERTEX
100
AcDbVertex
100
AcDb2dVertex
8
Layer01
10
5.811732
20
11.460982
30
0.0
0
VERTEX
100
AcDbVertex
100
AcDb2dVertex
8
Layer01
10
6.063024
20
11.32754
30
0.0
0
VERTEX
100
AcDbVertex
100
AcDb2dVertex
8
Layer01
10
6.321023
20
11.194098
30
0.0
0
VERTEX
100
AcDbVertex
100
AcDb2dVertex
8
Layer01
10
6.585506
20
11.060656
30
0.0
0
VERTEX
100
AcDbVertex
100
AcDb2dVertex
8
Layer01
10
6.856216
20
10.927214
30
0.0
0
VERTEX
100
AcDbVertex
100
AcDb2dVertex
8
Layer01
10
7.132864
20
10.793772
30
0.0
0
VERTEX
100
AcDbVertex
100
AcDb2dVertex
8
Layer01
10
7.415124
20
10.66033
30
0.0
0
VERTEX
100
AcDbVertex
100
AcDb2dVertex
8
Layer01
10
7.702636
20
10.526888
30
0.0
0
VERTEX
100
AcDbVertex
100
AcDb2dVertex
8
Layer01
10
7.995
20
10.393447
30
0.0
0
VERTEX
100
AcDbVertex
100
AcDb2dVertex
8
Layer01
10
7.995
20
10.393447
30
0.0
0
VERTEX
100
AcDbVertex
100
AcDb2dVertex
8
Layer01
10
8.254528
20
10.277604
30
0.0
0
VERTEX
100
AcDbVertex
100
AcDb2dVertex
8
Layer01
10
8.516826
20
10.161761
30
0.0
0
VERTEX
100
AcDbVertex
100
AcDb2dVertex
8
Layer01
10
8.781442
20
10.045919
30
0.0
0
VERTEX
100
AcDbVertex
100
AcDb2dVertex
8
Layer01
10
9.047919
20
9.930076
30
0.0
0
VERTEX
100
AcDbVertex
100
AcDb2dVertex
8
Layer01
10
9.315792
20
9.814233
30
0.0
0
VERTEX
100
AcDbVertex
100
AcDb2dVertex
8
Layer01
10
9.584598
20
9.69839
30
0.0
0
VERTEX
100
AcDbVertex
100
AcDb2dVertex
8
Layer01
10
9.853874
20
9.582548
30
0.0
0
VERTEX
100
AcDbVertex
100
AcDb2dVertex
8
Layer01
10
10.123164
20
9.466705
30
0.0
0
VERTEX
100
AcDbVertex
100
AcDb2dVertex
8
Layer01
10
10.392021
20
9.350862
30
0.0
0
VERTEX
100
AcDbVertex
100
AcDb2dVertex
8
Layer01
10
10.926499
20
9.121859
30
0.0
0
VERTEX
100
AcDbVertex
100
AcDb2dVertex
8
Layer01
10
11.192999
20
9.007699
30
0.0
0
VERTEX
100
AcDbVertex
100
AcDb2dVertex
8
Layer01
10
11.459498
20
8.892179
30
0.0
0
VERTEX
100
AcDbVertex
100
AcDb2dVertex
8
Layer01
10
11.725998
20
8.774959
30
0.0
0
VERTEX
100
AcDbVertex
100
AcDb2dVertex
8
Layer01
10
11.992497
20
8.655731
30
0.0
0
VERTEX
100
AcDbVertex
100
AcDb2dVertex
8
Layer01
10
12.258997
20
8.534225
30
0.0
0
VERTEX
100
AcDbVertex
100
AcDb2dVertex
8
Layer01
10
12.525497
20
8.410219
30
0.0
0
VERTEX
100
AcDbVertex
100
AcDb2dVertex
8
Layer01
10
12.791996
20
8.283548
30
0.0
0
VERTEX
100
AcDbVertex
100
AcDb2dVertex
8
Layer01
10
13.058496
20
8.154107
30
0.0
0
VERTEX
100
AcDbVertex
100
AcDb2dVertex
8
Layer01
10
13.324995
20
8.021866
30
0.0
0
VERTEX
100
AcDbVertex
100
AcDb2dVertex
8
Layer01
10
13.5915
20
7.87823
30
0.0
0
VERTEX
100
AcDbVertex
100
AcDb2dVertex
8
Layer01
10
13.857999
20
7.732626
30
0.0
0
VERTEX
100
AcDbVertex
100
AcDb2dVertex
8
Layer01
10
14.124499
20
7.5859
30
0.0
0
VERTEX
100
AcDbVertex
100
AcDb2dVertex
8
Layer01
10
14.390998
20
7.438954
30
0.0
0
VERTEX
100
AcDbVertex
100
AcDb2dVertex
8
Layer01
10
14.657498
20
7.29272
30
0.0
0
VERTEX
100
AcDbVertex
100
AcDb2dVertex
8
Layer01
10
14.923997
20
7.148145
30
0.0
0
VERTEX
100
AcDbVertex
100
AcDb2dVertex
8
Layer01
10
15.190497
20
7.006169
30
0.0
0
VERTEX
100
AcDbVertex
100
AcDb2dVertex
8
Layer01
10
15.456997
20
6.867709
30
0.0
0
VERTEX
100
AcDbVertex
100
AcDb2dVertex
8
Layer01
10
15.723496
20
6.733641
30
0.0
0
VERTEX
100
AcDbVertex
100
AcDb2dVertex
8
Layer01
10
15.989996
20
6.604778
30
0.0
0
VERTEX
100
AcDbVertex
100
AcDb2dVertex
8
Layer01
10
16.256499
20
6.490867
30
0.0
0
VERTEX
100
AcDbVertex
100
AcDb2dVertex
8
Layer01
10
16.522999
20
6.382861
30
0.0
0
VERTEX
100
AcDbVertex
100
AcDb2dVertex
8
Layer01
10
16.789498
20
6.280634
30
0.0
0
VERTEX
100
AcDbVertex
100
AcDb2dVertex
8
Layer01
10
17.055999
20
6.183979
30
0.0
0
VERTEX
100
AcDbVertex
100
AcDb2dVertex
8
Layer01
10
17.322499
20
6.092621
30
0.0
0
VERTEX
100
AcDbVertex
100
AcDb2dVertex
8
Layer01
10
17.589
20
6.006223
30
0.0
0
VERTEX
100
AcDbVertex
100
AcDb2dVertex
8
Layer01
10
17.8555
20
5.924397
30
0.0
0
VERTEX
100
AcDbVertex
100
AcDb2dVertex
8
Layer01
10
18.122001
20
5.846712
30
0.0
0
VERTEX
100
AcDbVertex
100
AcDb2dVertex
8
Layer01
10
18.388502
20
5.772701
30
0.0
0
VERTEX
100
AcDbVertex
100
AcDb2dVertex
8
Layer01
10
18.921501
20
5.629066
30
0.0
0
VERTEX
100
AcDbVertex
100
AcDb2dVertex
8
Layer01
10
19.188001
20
5.558598
30
0.0
0
VERTEX
100
AcDbVertex
100
AcDb2dVertex
8
Layer01
10
19.454502
20
5.4903
30
0.0
0
VERTEX
100
AcDbVertex
100
AcDb2dVertex
8
Layer01
10
19.721002
20
5.424012
30
0.0
0
VERTEX
100
AcDbVertex
100
AcDb2dVertex
8
Layer01
10
19.987503
20
5.359582
30
0.0
0
VERTEX
100
AcDbVertex
100
AcDb2dVertex
8
Layer01
10
20.254003
20
5.296872
30
0.0
0
VERTEX
100
AcDbVertex
100
AcDb2dVertex
8
Layer01
10
20.520504
20
5.235752
30
0.0
0
VERTEX
100
AcDbVertex
100
AcDb2dVertex
8
Layer01
10
20.787004
20
5.176102
30
0.0
0
VERTEX
100
AcDbVertex
100
AcDb2dVertex
8
Layer01
10
21.053505
20
5.117812
30
0.0
0
VERTEX
100
AcDbVertex
100
AcDb2dVertex
8
Layer01
10
21.852999
20
4.949194
30
0.0
0
VERTEX
100
AcDbVertex
100
AcDb2dVertex
8
Layer01
10
22.385998
20
4.841512
30
0.0
0
VERTEX
100
AcDbVertex
100
AcDb2dVertex
8
Layer01
10
22.918997
20
4.737365
30
0.0
0
VERTEX
100
AcDbVertex
100
AcDb2dVertex
8
Layer01
10
23.451996
20
4.636513
30
0.0
0
VERTEX
100
AcDbVertex
100
AcDb2dVertex
8
Layer01
10
23.984995
20
4.538828
30
0.0
0
VERTEX
100
AcDbVertex
100
AcDb2dVertex
8
Layer01
10
24.517994
20
4.444277
30
0.0
0
VERTEX
100
AcDbVertex
100
AcDb2dVertex
8
Layer01
10
25.050993
20
4.352898
30
0.0
0
VERTEX
100
AcDbVertex
100
AcDb2dVertex
8
Layer01
10
25.583992
20
4.26479
30
0.0
0
VERTEX
100
AcDbVertex
100
AcDb2dVertex
8
Layer01
10
26.116991
20
4.180084
30
0.0
0
VERTEX
100
AcDbVertex
100
AcDb2dVertex
8
Layer01
10
26.64999
20
4.098931
30
0.0
0
VERTEX
100
AcDbVertex
100
AcDb2dVertex
8
Layer01
10
27.182999
20
4.028832
30
0.0
0
VERTEX
100
AcDbVertex
100
AcDb2dVertex
8
Layer01
10
27.715999
20
3.962216
30
0.0
0
VERTEX
100
AcDbVertex
100
AcDb2dVertex
8
Layer01
10
28.248998
20
3.898582
30
0.0
0
VERTEX
100
AcDbVertex
100
AcDb2dVertex
8
Layer01
10
28.781997
20
3.837399
30
0.0
0
VERTEX
100
AcDbVertex
100
AcDb2dVertex
8
Layer01
10
29.314996
20
3.77812
30
0.0
0
VERTEX
100
AcDbVertex
100
AcDb2dVertex
8
Layer01
10
29.847995
20
3.72019
30
0.0
0
VERTEX
100
AcDbVertex
100
AcDb2dVertex
8
Layer01
10
30.380994
20
3.663059
30
0.0
0
VERTEX
100
AcDbVertex
100
AcDb2dVertex
8
Layer01
10
30.913993
20
3.606187
30
0.0
0
VERTEX
100
AcDbVertex
100
AcDb2dVertex
8
Layer01
10
31.446992
20
3.549062
30
0.0
0
VERTEX
100
AcDbVertex
100
AcDb2dVertex
8
Layer01
10
31.979991
20
3.491204
30
0.0
0
VERTEX
100
AcDbVertex
100
AcDb2dVertex
8
Layer01
10
32.512998
20
3.426646
30
0.0
0
VERTEX
100
AcDbVertex
100
AcDb2dVertex
8
Layer01
10
33.045997
20
3.360958
30
0.0
0
VERTEX
100
AcDbVertex
100
AcDb2dVertex
8
Layer01
10
33.578997
20
3.294227
30
0.0
0
VERTEX
100
AcDbVertex
100
AcDb2dVertex
8
Layer01
10
34.111998
20
3.22658
30
0.0
0
VERTEX
100
AcDbVertex
100
AcDb2dVertex
8
Layer01
10
34.644999
20
3.158184
30
0.0
0
VERTEX
100
AcDbVertex
100
AcDb2dVertex
8
Layer01
10
35.178
20
3.089234
30
0.0
0
VERTEX
100
AcDbVertex
100
AcDb2dVertex
8
Layer01
10
35.711001
20
3.019948
30
0.0
0
VERTEX
100
AcDbVertex
100
AcDb2dVertex
8
Layer01
10
36.244002
20
2.950561
30
0.0
0
VERTEX
100
AcDbVertex
100
AcDb2dVertex
8
Layer01
10
36.777003
20
2.881322
30
0.0
0
VERTEX
100
AcDbVertex
100
AcDb2dVertex
8
Layer01
10
37.843001
20
2.746225
30
0.0
0
VERTEX
100
AcDbVertex
100
AcDb2dVertex
8
Layer01
10
38.376002
20
2.680711
30
0.0
0
VERTEX
100
AcDbVertex
100
AcDb2dVertex
8
Layer01
10
38.909003
20
2.616027
30
0.0
0
VERTEX
100
AcDbVertex
100
AcDb2dVertex
8
Layer01
10
39.442004
20
2.55225
30
0.0
0
VERTEX
100
AcDbVertex
100
AcDb2dVertex
8
Layer01
10
39.975006
20
2.489448
30
0.0
0
VERTEX
100
AcDbVertex
100
AcDb2dVertex
8
Layer01
10
40.508007
20
2.427678
30
0.0
0
VERTEX
100
AcDbVertex
100
AcDb2dVertex
8
Layer01
10
41.041008
20
2.366988
30
0.0
0
VERTEX
100
AcDbVertex
100
AcDb2dVertex
8
Layer01
10
41.574009
20
2.307413
30
0.0
0
VERTEX
100
AcDbVertex
100
AcDb2dVertex
8
Layer01
10
42.10701
20
2.248978
30
0.0
0
VERTEX
100
AcDbVertex
100
AcDb2dVertex
8
Layer01
10
43.173
20
2.136821
30
0.0
0
VERTEX
100
AcDbVertex
100
AcDb2dVertex
8
Layer01
10
43.706001
20
2.082988
30
0.0
0
VERTEX
100
AcDbVertex
100
AcDb2dVertex
8
Layer01
10
44.239002
20
2.030082
30
0.0
0
VERTEX
100
AcDbVertex
100
AcDb2dVertex
8
Layer01
10
44.772003
20
1.977977
30
0.0
0
VERTEX
100
AcDbVertex
100
AcDb2dVertex
8
Layer01
10
45.305004
20
1.926547
30
0.0
0
VERTEX
100
AcDbVertex
100
AcDb2dVertex
8
Layer01
10
45.838006
20
1.875664
30
0.0
0
VERTEX
100
AcDbVertex
100
AcDb2dVertex
8
Layer01
10
46.371007
20
1.825206
30
0.0
0
VERTEX
100
AcDbVertex
100
AcDb2dVertex
8
Layer01
10
46.904008
20
1.775056
30
0.0
0
VERTEX
100
AcDbVertex
100
AcDb2dVertex
8
Layer01
10
47.437009
20
1.725109
30
0.0
0
VERTEX
100
AcDbVertex
100
AcDb2dVertex
8
Layer01
10
48.503003
20
1.623143
30
0.0
0
VERTEX
100
AcDbVertex
100
AcDb2dVertex
8
Layer01
10
49.036004
20
1.571169
30
0.0
0
VERTEX
100
AcDbVertex
100
AcDb2dVertex
8
Layer01
10
49.569005
20
1.519486
30
0.0
0
VERTEX
100
AcDbVertex
100
AcDb2dVertex
8
Layer01
10
50.102006
20
1.468244
30
0.0
0
VERTEX
100
AcDbVertex
100
AcDb2dVertex
8
Layer01
10
50.635007
20
1.417602
30
0.0
0
VERTEX
100
AcDbVertex
100
AcDb2dVertex
8
Layer01
10
51.168008
20
1.367723
30
0.0
0
VERTEX
100
AcDbVertex
100
AcDb2dVertex
8
Layer01
10
51.701009
20
1.318774
30
0.0
0
VERTEX
100
AcDbVertex
100
AcDb2dVertex
8
Layer01
10
52.234011
20
1.270916
30
0.0
0
VERTEX
100
AcDbVertex
100
AcDb2dVertex
8
Layer01
10
52.767012
20
1.22431
30
0.0
0
VERTEX
100
AcDbVertex
100
AcDb2dVertex
8
Layer01
10
53.833002
20
1.137356
30
0.0
0
VERTEX
100
AcDbVertex
100
AcDb2dVertex
8
Layer01
10
54.366003
20
1.097116
30
0.0
0
VERTEX
100
AcDbVertex
100
AcDb2dVertex
8
Layer01
10
54.899004
20
1.05834
30
0.0
0
VERTEX
100
AcDbVertex
100
AcDb2dVertex
8
Layer01
10
55.432005
20
1.020974
30
0.0
0
VERTEX
100
AcDbVertex
100
AcDb2dVertex
8
Layer01
10
55.965006
20
0.984953
30
0.0
0
VERTEX
100
AcDbVertex
100
AcDb2dVertex
8
Layer01
10
56.498007
20
0.950203
30
0.0
0
VERTEX
100
AcDbVertex
100
AcDb2dVertex
8
Layer01
10
57.031008
20
0.916644
30
0.0
0
VERTEX
100
AcDbVertex
100
AcDb2dVertex
8
Layer01
10
57.564009
20
0.884191
30
0.0
0
VERTEX
100
AcDbVertex
100
AcDb2dVertex
8
Layer01
10
58.097011
20
0.852758
30
0.0
0
VERTEX
100
AcDbVertex
100
AcDb2dVertex
8
Layer01
10
59.163001
20
0.791754
30
0.0
0
VERTEX
100
AcDbVertex
100
AcDb2dVertex
8
Layer01
10
59.696002
20
0.762082
30
0.0
0
VERTEX
100
AcDbVertex
100
AcDb2dVertex
8
Layer01
10
60.229003
20
0.733232
30
0.0
0
VERTEX
100
AcDbVertex
100
AcDb2dVertex
8
Layer01
10
60.762004
20
0.705194
30
0.0
0
VERTEX
100
AcDbVertex
100
AcDb2dVertex
8
Layer01
10
61.295005
20
0.677963
30
0.0
0
VERTEX
100
AcDbVertex
100
AcDb2dVertex
8
Layer01
10
61.828006
20
0.651534
30
0.0
0
VERTEX
100
AcDbVertex
100
AcDb2dVertex
8
Layer01
10
62.361007
20
0.625908
30
0.0
0
VERTEX
100
AcDbVertex
100
AcDb2dVertex
8
Layer01
10
62.894008
20
0.601083
30
0.0
0
VERTEX
100
AcDbVertex
100
AcDb2dVertex
8
Layer01
10
63.427009
20
0.577059
30
0.0
0
VERTEX
100
AcDbVertex
100
AcDb2dVertex
8
Layer01
10
64.493
20
0.531585
30
0.0
0
VERTEX
100
AcDbVertex
100
AcDb2dVertex
8
Layer01
10
65.026001
20
0.510124
30
0.0
0
VERTEX
100
AcDbVertex
100
AcDb2dVertex
8
Layer01
10
65.559002
20
0.489445
30
0.0
0
VERTEX
100
AcDbVertex
100
AcDb2dVertex
8
Layer01
10
66.092003
20
0.469536
30
0.0
0
VERTEX
100
AcDbVertex
100
AcDb2dVertex
8
Layer01
10
66.625
20
0.450384
30
0.0
0
VERTEX
100
AcDbVertex
100
AcDb2dVertex
8
Layer01
10
67.158001
20
0.431978
30
0.0
0
VERTEX
100
AcDbVertex
100
AcDb2dVertex
8
Layer01
10
67.691002
20
0.414303
30
0.0
0
VERTEX
100
AcDbVertex
100
AcDb2dVertex
8
Layer01
10
68.224003
20
0.397346
30
0.0
0
VERTEX
100
AcDbVertex
100
AcDb2dVertex
8
Layer01
10
68.757004
20
0.381093
30
0.0
0
VERTEX
100
AcDbVertex
100
AcDb2dVertex
8
Layer01
10
69.822999
20
0.350523
30
0.0
0
VERTEX
100
AcDbVertex
100
AcDb2dVertex
8
Layer01
10
70.356
20
0.336185
30
0.0
0
VERTEX
100
AcDbVertex
100
AcDb2dVertex
8
Layer01
10
70.889001
20
0.322511
30
0.0
0
VERTEX
100
AcDbVertex
100
AcDb2dVertex
8
Layer01
10
71.422002
20
0.309493
30
0.0
0
VERTEX
100
AcDbVertex
100
AcDb2dVertex
8
Layer01
10
71.955003
20
0.297122
30
0.0
0
VERTEX
100
AcDbVertex
100
AcDb2dVertex
8
Layer01
10
72.488004
20
0.285389
30
0.0
0
VERTEX
100
AcDbVertex
100
AcDb2dVertex
8
Layer01
10
73.021005
20
0.274281
30
0.0
0
VERTEX
100
AcDbVertex
100
AcDb2dVertex
8
Layer01
10
73.554006
20
0.263782
30
0.0
0
VERTEX
100
AcDbVertex
100
AcDb2dVertex
8
Layer01
10
74.087007
20
0.253875
30
0.0
0
VERTEX
100
AcDbVertex
100
AcDb2dVertex
8
Layer01
10
75.153001
20
0.236255
30
0.0
0
VERTEX
100
AcDbVertex
100
AcDb2dVertex
8
Layer01
10
75.686002
20
0.228451
30
0.0
0
VERTEX
100
AcDbVertex
100
AcDb2dVertex
8
Layer01
10
76.219004
20
0.22106
30
0.0
0
VERTEX
100
AcDbVertex
100
AcDb2dVertex
8
Layer01
10
76.752005
20
0.214011
30
0.0
0
VERTEX
100
AcDbVertex
100
AcDb2dVertex
8
Layer01
10
77.285006
20
0.207234
30
0.0
0
VERTEX
100
AcDbVertex
100
AcDb2dVertex
8
Layer01
10
77.818007
20
0.200659
30
0.0
0
VERTEX
100
AcDbVertex
100
AcDb2dVertex
8
Layer01
10
78.351008
20
0.19422
30
0.0
0
VERTEX
100
AcDbVertex
100
AcDb2dVertex
8
Layer01
10
78.884009
20
0.187851
30
0.0
0
VERTEX
100
AcDbVertex
100
AcDb2dVertex
8
Layer01
10
79.41701
20
0.181492
30
0.0
0
VERTEX
100
AcDbVertex
100
AcDb2dVertex
8
Layer01
10
80.483004
20
0.167851
30
0.0
0
VERTEX
100
AcDbVertex
100
AcDb2dVertex
8
Layer01
10
81.016005
20
0.160537
30
0.0
0
VERTEX
100
AcDbVertex
100
AcDb2dVertex
8
Layer01
10
81.549006
20
0.153171
30
0.0
0
VERTEX
100
AcDbVertex
100
AcDb2dVertex
8
Layer01
10
82.082007
20
0.145782
30
0.0
0
VERTEX
100
AcDbVertex
100
AcDb2dVertex
8
Layer01
10
82.615009
20
0.138404
30
0.0
0
VERTEX
100
AcDbVertex
100
AcDb2dVertex
8
Layer01
10
83.14801
20
0.131073
30
0.0
0
VERTEX
100
AcDbVertex
100
AcDb2dVertex
8
Layer01
10
83.681011
20
0.123829
30
0.0
0
VERTEX
100
AcDbVertex
100
AcDb2dVertex
8
Layer01
10
84.214012
20
0.116713
30
0.0
0
VERTEX
100
AcDbVertex
100
AcDb2dVertex
8
Layer01
10
84.747013
20
0.109766
30
0.0
0
VERTEX
100
AcDbVertex
100
AcDb2dVertex
8
Layer01
10
85.812999
20
0.097002
30
0.0
0
VERTEX
100
AcDbVertex
100
AcDb2dVertex
8
Layer01
10
86.346
20
0.091223
30
0.0
0
VERTEX
100
AcDbVertex
100
AcDb2dVertex
8
Layer01
10
86.879001
20
0.08569
30
0.0
0
VERTEX
100
AcDbVertex
100
AcDb2dVertex
8
Layer01
10
87.412002
20
0.080399
30
0.0
0
VERTEX
100
AcDbVertex
100
AcDb2dVertex
8
Layer01
10
87.945003
20
0.075343
30
0.0
0
VERTEX
100
AcDbVertex
100
AcDb2dVertex
8
Layer01
10
88.478005
20
0.070513
30
0.0
0
VERTEX
100
AcDbVertex
100
AcDb2dVertex
8
Layer01
10
89.011006
20
0.065899
30
0.0
0
VERTEX
100
AcDbVertex
100
AcDb2dVertex
8
Layer01
10
89.544007
20
0.061492
30
0.0
0
VERTEX
100
AcDbVertex
100
AcDb2dVertex
8
Layer01
10
90.077008
20
0.057278
30
0.0
0
VERTEX
100
AcDbVertex
100
AcDb2dVertex
8
Layer01
10
91.143002
20
0.049281
30
0.0
0
VERTEX
100
AcDbVertex
100
AcDb2dVertex
8
Layer01
10
91.676003
20
0.045479
30
0.0
0
VERTEX
100
AcDbVertex
100
AcDb2dVertex
8
Layer01
10
92.209004
20
0.041839
30
0.0
0
VERTEX
100
AcDbVertex
100
AcDb2dVertex
8
Layer01
10
92.742005
20
0.038355
30
0.0
0
VERTEX
100
AcDbVertex
100
AcDb2dVertex
8
Layer01
10
93.275006
20
0.035023
30
0.0
0
VERTEX
100
AcDbVertex
100
AcDb2dVertex
8
Layer01
10
93.808007
20
0.03184
30
0.0
0
VERTEX
100
AcDbVertex
100
AcDb2dVertex
8
Layer01
10
94.341009
20
0.028802
30
0.0
0
VERTEX
100
AcDbVertex
100
AcDb2dVertex
8
Layer01
10
94.87401
20
0.025905
30
0.0
0
VERTEX
100
AcDbVertex
100
AcDb2dVertex
8
Layer01
10
95.407011
20
0.023146
30
0.0
0
VERTEX
100
AcDbVertex
100
AcDb2dVertex
8
Layer01
10
96.473005
20
0.018075
30
0.0
0
VERTEX
100
AcDbVertex
100
AcDb2dVertex
8
Layer01
10
97.006006
20
0.015753
30
0.0
0
VERTEX
100
AcDbVertex
100
AcDb2dVertex
8
Layer01
10
97.539007
20
0.01355
30
0.0
0
VERTEX
100
AcDbVertex
100
AcDb2dVertex
8
Layer01
10
98.072008
20
0.011458
30
0.0
0
VERTEX
100
AcDbVertex
100
AcDb2dVertex
8
Layer01
10
98.605009
20
0.009473
30
0.0
0
VERTEX
100
AcDbVertex
100
AcDb2dVertex
8
Layer01
10
99.13801
20
0.00759
30
0.0
0
VERTEX
100
AcDbVertex
100
AcDb2dVertex
8
Layer01
10
99.671011
20
0.005804
30
0.0
0
VERTEX
100
AcDbVertex
100
AcDb2dVertex
8
Layer01
10
100.204012
20
0.004114
30
0.0
0
VERTEX
100
AcDbVertex
100
AcDb2dVertex
8
Layer01
10
100.737014
20
0.002517
30
0.0
0
VERTEX
100
AcDbVertex
100
AcDb2dVertex
8
Layer01
10
101.803
20
-0.000586
30
0.0
0
VERTEX
100
AcDbVertex
100
AcDb2dVertex
8
Layer01
10
102.336001
20
-0.002074
30
0.0
0
VERTEX
100
AcDbVertex
100
AcDb2dVertex
8
Layer01
10
102.869002
20
-0.003434
30
0.0
0
VERTEX
100
AcDbVertex
100
AcDb2dVertex
8
Layer01
10
103.402003
20
-0.004646
30
0.0
0
VERTEX
100
AcDbVertex
100
AcDb2dVertex
8
Layer01
10
103.935004
20
-0.005691
30
0.0
0
VERTEX
100
AcDbVertex
100
AcDb2dVertex
8
Layer01
10
104.468005
20
-0.00655
30
0.0
0
VERTEX
100
AcDbVertex
100
AcDb2dVertex
8
Layer01
10
105.001006
20
-0.007206
30
0.0
0
VERTEX
100
AcDbVertex
100
AcDb2dVertex
8
Layer01
10
105.534007
20
-0.00764
30
0.0
0
VERTEX
100
AcDbVertex
100
AcDb2dVertex
8
Layer01
10
106.067008
20
-0.007837
30
0.0
0
VERTEX
100
AcDbVertex
100
AcDb2dVertex
8
Layer01
10
107.133003
20
-0.007197
30
0.0
0
VERTEX
100
AcDbVertex
100
AcDb2dVertex
8
Layer01
10
107.666004
20
-0.00636
30
0.0
0
VERTEX
100
AcDbVertex
100
AcDb2dVertex
8
Layer01
10
108.199005
20
-0.005283
30
0.0
0
VERTEX
100
AcDbVertex
100
AcDb2dVertex
8
Layer01
10
108.732006
20
-0.003981
30
0.0
0
VERTEX
100
AcDbVertex
100
AcDb2dVertex
8
Layer01
10
109.265007
20
-0.00247
30
0.0
0
VERTEX
100
AcDbVertex
100
AcDb2dVertex
8
Layer01
10
109.798008
20
-0.000769
30
0.0
0
VERTEX
100
AcDbVertex
100
AcDb2dVertex
8
Layer01
10
110.331009
20
0.001104
30
0.0
0
VERTEX
100
AcDbVertex
100
AcDb2dVertex
8
Layer01
10
110.86401
20
0.00313
30
0.0
0
VERTEX
100
AcDbVertex
100
AcDb2dVertex
8
Layer01
10
111.397011
20
0.005291
30
0.0
0
VERTEX
100
AcDbVertex
100
AcDb2dVertex
8
Layer01
10
112.462998
20
0.009783
30
0.0
0
VERTEX
100
AcDbVertex
100
AcDb2dVertex
8
Layer01
10
112.995999
20
0.012091
30
0.0
0
VERTEX
100
AcDbVertex
100
AcDb2dVertex
8
Layer01
10
113.529
20
0.014489
30
0.0
0
VERTEX
100
AcDbVertex
100
AcDb2dVertex
8
Layer01
10
114.062001
20
0.016975
30
0.0
0
VERTEX
100
AcDbVertex
100
AcDb2dVertex
8
Layer01
10
114.595002
20
0.019548
30
0.0
0
VERTEX
100
AcDbVertex
100
AcDb2dVertex
8
Layer01
10
115.128003
20
0.022206
30
0.0
0
VERTEX
100
AcDbVertex
100
AcDb2dVertex
8
Layer01
10
115.661004
20
0.024948
30
0.0
0
VERTEX
100
AcDbVertex
100
AcDb2dVertex
8
Layer01
10
116.194005
20
0.027775
30
0.0
0
VERTEX
100
AcDbVertex
100
AcDb2dVertex
8
Layer01
10
116.727006
20
0.030688
30
0.0
0
VERTEX
100
AcDbVertex
100
AcDb2dVertex
8
Layer01
10
117.793
20
0.036806
30
0.0
0
VERTEX
100
AcDbVertex
100
AcDb2dVertex
8
Layer01
10
118.326002
20
0.040012
30
0.0
0
VERTEX
100
AcDbVertex
100
AcDb2dVertex
8
Layer01
10
118.859003
20
0.0433
30
0.0
0
VERTEX
100
AcDbVertex
100
AcDb2dVertex
8
Layer01
10
119.392004
20
0.046669
30
0.0
0
VERTEX
100
AcDbVertex
100
AcDb2dVertex
8
Layer01
10
119.925005
20
0.050117
30
0.0
0
VERTEX
100
AcDbVertex
100
AcDb2dVertex
8
Layer01
10
120.458006
20
0.053644
30
0.0
0
VERTEX
100
AcDbVertex
100
AcDb2dVertex
8
Layer01
10
120.991007
20
0.057246
30
0.0
0
VERTEX
100
AcDbVertex
100
AcDb2dVertex
8
Layer01
10
121.524008
20
0.060922
30
0.0
0
VERTEX
100
AcDbVertex
100
AcDb2dVertex
8
Layer01
10
122.057009
20
0.064671
30
0.0
0
VERTEX
100
AcDbVertex
100
AcDb2dVertex
8
Layer01
10
123.123003
20
0.072379
30
0.0
0
VERTEX
100
AcDbVertex
100
AcDb2dVertex
8
Layer01
10
123.656004
20
0.076336
30
0.0
0
VERTEX
100
AcDbVertex
100
AcDb2dVertex
8
Layer01
10
124.189005
20
0.08036
30
0.0
0
VERTEX
100
AcDbVertex
100
AcDb2dVertex
8
Layer01
10
124.722007
20
0.084448
30
0.0
0
VERTEX
100
AcDbVertex
100
AcDb2dVertex
8
Layer01
10
125.255008
20
0.088601
30
0.0
0
VERTEX
100
AcDbVertex
100
AcDb2dVertex
8
Layer01
10
125.788009
20
0.092816
30
0.0
0
VERTEX
100
AcDbVertex
100
AcDb2dVertex
8
Layer01
10
126.32101
20
0.097093
30
0.0
0
VERTEX
100
AcDbVertex
100
AcDb2dVertex
8
Layer01
10
126.854011
20
0.101429
30
0.0
0
VERTEX
100
AcDbVertex
100
AcDb2dVertex
8
Layer01
10
127.387012
20
0.105825
30
0.0
0
VERTEX
100
AcDbVertex
100
AcDb2dVertex
8
Layer01
10
128.452998
20
0.114788
30
0.0
0
VERTEX
100
AcDbVertex
100
AcDb2dVertex
8
Layer01
10
128.985999
20
0.119354
30
0.0
0
VERTEX
100
AcDbVertex
100
AcDb2dVertex
8
Layer01
10
129.519
20
0.123974
30
0.0
0
VERTEX
100
AcDbVertex
100
AcDb2dVertex
8
Layer01
10
130.052001
20
0.128646
30
0.0
0
VERTEX
100
AcDbVertex
100
AcDb2dVertex
8
Layer01
10
130.585003
20
0.13337
30
0.0
0
VERTEX
100
AcDbVertex
100
AcDb2dVertex
8
Layer01
10
131.118004
20
0.138143
30
0.0
0
VERTEX
100
AcDbVertex
100
AcDb2dVertex
8
Layer01
10
131.651005
20
0.142966
30
0.0
0
VERTEX
100
AcDbVertex
100
AcDb2dVertex
8
Layer01
10
132.184006
20
0.147836
30
0.0
0
VERTEX
100
AcDbVertex
100
AcDb2dVertex
8
Layer01
10
132.717007
20
0.152752
30
0.0
0
VERTEX
100
AcDbVertex
100
AcDb2dVertex
8
Layer01
10
133.25
20
0.157715
30
0.0
0
VERTEX
100
AcDbVertex
100
AcDb2dVertex
8
Layer01
10
133.782993
20
0.16272
30
0.0
0
VERTEX
100
AcDbVertex
100
AcDb2dVertex
8
Layer01
10
134.315986
20
0.167768
30
0.0
0
VERTEX
100
AcDbVertex
100
AcDb2dVertex
8
Layer01
10
134.848979
20
0.172859
30
0.0
0
VERTEX
100
AcDbVertex
100
AcDb2dVertex
8
Layer01
10
135.381973
20
0.177993
30
0.0
0
VERTEX
100
AcDbVertex
100
AcDb2dVertex
8
Layer01
10
135.914966
20
0.183167
30
0.0
0
VERTEX
100
AcDbVertex
100
AcDb2dVertex
8
Layer01
10
136.447959
20
0.188381
30
0.0
0
VERTEX
100
AcDbVertex
100
AcDb2dVertex
8
Layer01
10
136.980952
20
0.193636
30
0.0
0
VERTEX
100
AcDbVertex
100
AcDb2dVertex
8
Layer01
10
137.513945
20
0.198929
30
0.0
0
VERTEX
100
AcDbVertex
100
AcDb2dVertex
8
Layer01
10
138.046938
20
0.20426
30
0.0
0
VERTEX
100
AcDbVertex
100
AcDb2dVertex
8
Layer01
10
138.579931
20
0.209628
30
0.0
0
VERTEX
100
AcDbVertex
100
AcDb2dVertex
8
Layer01
10
139.112988
20
0.215036
30
0.0
0
VERTEX
100
AcDbVertex
100
AcDb2dVertex
8
Layer01
10
139.645981
20
0.220479
30
0.0
0
VERTEX
100
AcDbVertex
100
AcDb2dVertex
8
Layer01
10
140.178974
20
0.225957
30
0.0
0
VERTEX
100
AcDbVertex
100
AcDb2dVertex
8
Layer01
10
140.711967
20
0.23147
30
0.0
0
VERTEX
100
AcDbVertex
100
AcDb2dVertex
8
Layer01
10
141.244961
20
0.237016
30
0.0
0
VERTEX
100
AcDbVertex
100
AcDb2dVertex
8
Layer01
10
141.777954
20
0.242594
30
0.0
0
VERTEX
100
AcDbVertex
100
AcDb2dVertex
8
Layer01
10
142.310947
20
0.248205
30
0.0
0
VERTEX
100
AcDbVertex
100
AcDb2dVertex
8
Layer01
10
142.84394
20
0.253846
30
0.0
0
VERTEX
100
AcDbVertex
100
AcDb2dVertex
8
Layer01
10
143.376933
20
0.259518
30
0.0
0
VERTEX
100
AcDbVertex
100
AcDb2dVertex
8
Layer01
10
143.909926
20
0.26522
30
0.0
0
VERTEX
100
AcDbVertex
100
AcDb2dVertex
8
Layer01
10
144.442999
20
0.27095
30
0.0
0
VERTEX
100
AcDbVertex
100
AcDb2dVertex
8
Layer01
10
144.975992
20
0.276708
30
0.0
0
VERTEX
100
AcDbVertex
100
AcDb2dVertex
8
Layer01
10
145.508985
20
0.282494
30
0.0
0
VERTEX
100
AcDbVertex
100
AcDb2dVertex
8
Layer01
10
146.041978
20
0.288307
30
0.0
0
VERTEX
100
AcDbVertex
100
AcDb2dVertex
8
Layer01
10
146.574971
20
0.294147
30
0.0
0
VERTEX
100
AcDbVertex
100
AcDb2dVertex
8
Layer01
10
147.107965
20
0.300015
30
0.0
0
VERTEX
100
AcDbVertex
100
AcDb2dVertex
8
Layer01
10
147.640958
20
0.305908
30
0.0
0
VERTEX
100
AcDbVertex
100
AcDb2dVertex
8
Layer01
10
148.173951
20
0.311828
30
0.0
0
VERTEX
100
AcDbVertex
100
AcDb2dVertex
8
Layer01
10
148.706944
20
0.317773
30
0.0
0
VERTEX
100
AcDbVertex
100
AcDb2dVertex
8
Layer01
10
149.239937
20
0.323743
30
0.0
0
VERTEX
100
AcDbVertex
100
AcDb2dVertex
8
Layer01
10
149.772994
20
0.329764
30
0.0
0
VERTEX
100
AcDbVertex
100
AcDb2dVertex
8
Layer01
10
150.305987
20
0.335806
30
0.0
0
VERTEX
100
AcDbVertex
100
AcDb2dVertex
8
Layer01
10
150.83898
20
0.341869
30
0.0
0
VERTEX
100
AcDbVertex
100
AcDb2dVertex
8
Layer01
10
151.371973
20
0.347951
30
0.0
0
VERTEX
100
AcDbVertex
100
AcDb2dVertex
8
Layer01
10
151.904966
20
0.35405
30
0.0
0
VERTEX
100
AcDbVertex
100
AcDb2dVertex
8
Layer01
10
152.437959
20
0.360166
30
0.0
0
VERTEX
100
AcDbVertex
100
AcDb2dVertex
8
Layer01
10
152.970953
20
0.366296
30
0.0
0
VERTEX
100
AcDbVertex
100
AcDb2dVertex
8
Layer01
10
153.503946
20
0.37244
30
0.0
0
VERTEX
100
AcDbVertex
100
AcDb2dVertex
8
Layer01
10
154.036939
20
0.378599
30
0.0
0
VERTEX
100
AcDbVertex
100
AcDb2dVertex
8
Layer01
10
154.569932
20
0.384772
30
0.0
0
VERTEX
100
AcDbVertex
100
AcDb2dVertex
8
Layer01
10
155.102989
20
0.390867
30
0.0
0
VERTEX
100
AcDbVertex
100
AcDb2dVertex
8
Layer01
10
155.635982
20
0.396987
30
0.0
0
VERTEX
100
AcDbVertex
100
AcDb2dVertex
8
Layer01
10
156.168975
20
0.403141
30
0.0
0
VERTEX
100
AcDbVertex
100
AcDb2dVertex
8
Layer01
10
156.701968
20
0.409339
30
0.0
0
VERTEX
100
AcDbVertex
100
AcDb2dVertex
8
Layer01
10
157.234961
20
0.415591
30
0.0
0
VERTEX
100
AcDbVertex
100
AcDb2dVertex
8
Layer01
10
157.767954
20
0.421907
30
0.0
0
VERTEX
100
AcDbVertex
100
AcDb2dVertex
8
Layer01
10
158.300948
20
0.428296
30
0.0
0
VERTEX
100
AcDbVertex
100
AcDb2dVertex
8
Layer01
10
158.833941
20
0.434767
30
0.0
0
VERTEX
100
AcDbVertex
100
AcDb2dVertex
8
Layer01
10
159.366934
20
0.441328
30
0.0
0
VERTEX
100
AcDbVertex
100
AcDb2dVertex
8
Layer01
10
159.899927
20
0.447986
30
0.0
0
VERTEX
100
AcDbVertex
100
AcDb2dVertex
8
Layer01
10
160.432999
20
0.454889
30
0.0
0
VERTEX
100
AcDbVertex
100
AcDb2dVertex
8
Layer01
10
160.965993
20
0.461887
30
0.0
0
VERTEX
100
AcDbVertex
100
AcDb2dVertex
8
Layer01
10
161.498986
20
0.468973
30
0.0
0
VERTEX
100
AcDbVertex
100
AcDb2dVertex
8
Layer01
10
162.031979
20
0.47614
30
0.0
0
VERTEX
100
AcDbVertex
100
AcDb2dVertex
8
Layer01
10
162.564972
20
0.483377
30
0.0
0
VERTEX
100
AcDbVertex
100
AcDb2dVertex
8
Layer01
10
163.097965
20
0.490675
30
0.0
0
VERTEX
100
AcDbVertex
100
AcDb2dVertex
8
Layer01
10
163.630958
20
0.498022
30
0.0
0
VERTEX
100
AcDbVertex
100
AcDb2dVertex
8
Layer01
10
164.163951
20
0.505409
30
0.0
0
VERTEX
100
AcDbVertex
100
AcDb2dVertex
8
Layer01
10
164.696945
20
0.512825
30
0.0
0
VERTEX
100
AcDbVertex
100
AcDb2dVertex
8
Layer01
10
165.229938
20
0.52026
30
0.0
0
VERTEX
100
AcDbVertex
100
AcDb2dVertex
8
Layer01
10
165.762994
20
0.527611
30
0.0
0
VERTEX
100
AcDbVertex
100
AcDb2dVertex
8
Layer01
10
166.295988
20
0.534969
30
0.0
0
VERTEX
100
AcDbVertex
100
AcDb2dVertex
8
Layer01
10
166.828981
20
0.542332
30
0.0
0
VERTEX
100
AcDbVertex
100
AcDb2dVertex
8
Layer01
10
167.361974
20
0.5497
30
0.0
0
VERTEX
100
AcDbVertex
100
AcDb2dVertex
8
Layer01
10
167.894967
20
0.557073
30
0.0
0
VERTEX
100
AcDbVertex
100
AcDb2dVertex
8
Layer01
10
168.42796
20
0.564451
30
0.0
0
VERTEX
100
AcDbVertex
100
AcDb2dVertex
8
Layer01
10
168.960953
20
0.571835
30
0.0
0
VERTEX
100
AcDbVertex
100
AcDb2dVertex
8
Layer01
10
169.493946
20
0.579225
30
0.0
0
VERTEX
100
AcDbVertex
100
AcDb2dVertex
8
Layer01
10
170.02694
20
0.586622
30
0.0
0
VERTEX
100
AcDbVertex
100
AcDb2dVertex
8
Layer01
10
170.559933
20
0.594028
30
0.0
0
VERTEX
100
AcDbVertex
100
AcDb2dVertex
8
Layer01
10
171.092989
20
0.601468
30
0.0
0
VERTEX
100
AcDbVertex
100
AcDb2dVertex
8
Layer01
10
171.625982
20
0.608916
30
0.0
0
VERTEX
100
AcDbVertex
100
AcDb2dVertex
8
Layer01
10
172.158976
20
0.616372
30
0.0
0
VERTEX
100
AcDbVertex
100
AcDb2dVertex
8
Layer01
10
172.691969
20
0.623837
30
0.0
0
VERTEX
100
AcDbVertex
100
AcDb2dVertex
8
Layer01
10
173.224962
20
0.631309
30
0.0
0
VERTEX
100
AcDbVertex
100
AcDb2dVertex
8
Layer01
10
173.757955
20
0.638787
30
0.0
0
VERTEX
100
AcDbVertex
100
AcDb2dVertex
8
Layer01
10
174.290948
20
0.646271
30
0.0
0
VERTEX
100
AcDbVertex
100
AcDb2dVertex
8
Layer01
10
174.823941
20
0.653761
30
0.0
0
VERTEX
100
AcDbVertex
100
AcDb2dVertex
8
Layer01
10
175.356934
20
0.661255
30
0.0
0
VERTEX
100
AcDbVertex
100
AcDb2dVertex
8
Layer01
10
175.889928
20
0.668754
30
0.0
0
VERTEX
100
AcDbVertex
100
AcDb2dVertex
8
Layer01
10
176.423
20
0.676257
30
0.0
0
VERTEX
100
AcDbVertex
100
AcDb2dVertex
8
Layer01
10
176.955993
20
0.683761
30
0.0
0
VERTEX
100
AcDbVertex
100
AcDb2dVertex
8
Layer01
10
177.488986
20
0.691269
30
0.0
0
VERTEX
100
AcDbVertex
100
AcDb2dVertex
8
Layer01
10
178.02198
20
0.698778
30
0.0
0
VERTEX
100
AcDbVertex
100
AcDb2dVertex
8
Layer01
10
178.554973
20
0.706289
30
0.0
0
VERTEX
100
AcDbVertex
100
AcDb2dVertex
8
Layer01
10
179.087966
20
0.713802
30
0.0
0
VERTEX
100
AcDbVertex
100
AcDb2dVertex
8
Layer01
10
179.620959
20
0.721315
30
0.0
0
VERTEX
100
AcDbVertex
100
AcDb2dVertex
8
Layer01
10
180.153952
20
0.728828
30
0.0
0
VERTEX
100
AcDbVertex
100
AcDb2dVertex
8
Layer01
10
180.686945
20
0.736341
30
0.0
0
VERTEX
100
AcDbVertex
100
AcDb2dVertex
8
Layer01
10
181.219938
20
0.743854
30
0.0
0
VERTEX
100
AcDbVertex
100
AcDb2dVertex
8
Layer01
10
181.752995
20
0.751367
30
0.0
0
VERTEX
100
AcDbVertex
100
AcDb2dVertex
8
Layer01
10
182.285988
20
0.758878
30
0.0
0
VERTEX
100
AcDbVertex
100
AcDb2dVertex
8
Layer01
10
182.818981
20
0.766386
30
0.0
0
VERTEX
100
AcDbVertex
100
AcDb2dVertex
8
Layer01
10
183.351974
20
0.773892
30
0.0
0
VERTEX
100
AcDbVertex
100
AcDb2dVertex
8
Layer01
10
183.884968
20
0.781395
30
0.0
0
VERTEX
100
AcDbVertex
100
AcDb2dVertex
8
Layer01
10
184.417961
20
0.788895
30
0.0
0
VERTEX
100
AcDbVertex
100
AcDb2dVertex
8
Layer01
10
184.950954
20
0.79639
30
0.0
0
VERTEX
100
AcDbVertex
100
AcDb2dVertex
8
Layer01
10
185.483947
20
0.803881
30
0.0
0
VERTEX
100
AcDbVertex
100
AcDb2dVertex
8
Layer01
10
186.01694
20
0.811367
30
0.0
0
VERTEX
100
AcDbVertex
100
AcDb2dVertex
8
Layer01
10
186.549933
20
0.818847
30
0.0
0
VERTEX
100
AcDbVertex
100
AcDb2dVertex
8
Layer01
10
187.08299
20
0.826321
30
0.0
0
VERTEX
100
AcDbVertex
100
AcDb2dVertex
8
Layer01
10
187.615983
20
0.833789
30
0.0
0
VERTEX
100
AcDbVertex
100
AcDb2dVertex
8
Layer01
10
188.148976
20
0.841249
30
0.0
0
VERTEX
100
AcDbVertex
100
AcDb2dVertex
8
Layer01
10
188.681969
20
0.848703
30
0.0
0
VERTEX
100
AcDbVertex
100
AcDb2dVertex
8
Layer01
10
189.214963
20
0.856149
30
0.0
0
VERTEX
100
AcDbVertex
100
AcDb2dVertex
8
Layer01
10
189.747956
20
0.863587
30
0.0
0
VERTEX
100
AcDbVertex
100
AcDb2dVertex
8
Layer01
10
190.280949
20
0.871017
30
0.0
0
VERTEX
100
AcDbVertex
100
AcDb2dVertex
8
Layer01
10
190.813942
20
0.878438
30
0.0
0
VERTEX
100
AcDbVertex
100
AcDb2dVertex
8
Layer01
10
191.346935
20
0.88585
30
0.0
0
VERTEX
100
AcDbVertex
100
AcDb2dVertex
8
Layer01
10
191.879928
20
0.893254
30
0.0
0
VERTEX
100
AcDbVertex
100
AcDb2dVertex
8
Layer01
10
192.413001
20
0.900649
30
0.0
0
VERTEX
100
AcDbVertex
100
AcDb2dVertex
8
Layer01
10
192.945994
20
0.908033
30
0.0
0
VERTEX
100
AcDbVertex
100
AcDb2dVertex
8
Layer01
10
193.478987
20
0.915407
30
0.0
0
VERTEX
100
AcDbVertex
100
AcDb2dVertex
8
Layer01
10
194.01198
20
0.92277
30
0.0
0
VERTEX
100
AcDbVertex
100
AcDb2dVertex
8
Layer01
10
194.544973
20
0.930122
30
0.0
0
VERTEX
100
AcDbVertex
100
AcDb2dVertex
8
Layer01
10
195.077966
20
0.937462
30
0.0
0
VERTEX
100
AcDbVertex
100
AcDb2dVertex
8
Layer01
10
195.61096
20
0.944791
30
0.0
0
VERTEX
100
AcDbVertex
100
AcDb2dVertex
8
Layer01
10
196.143953
20
0.952107
30
0.0
0
VERTEX
100
AcDbVertex
100
AcDb2dVertex
8
Layer01
10
196.676946
20
0.959411
30
0.0
0
VERTEX
100
AcDbVertex
100
AcDb2dVertex
8
Layer01
10
197.209939
20
0.966701
30
0.0
0
VERTEX
100
AcDbVertex
100
AcDb2dVertex
8
Layer01
10
197.742996
20
0.973979
30
0.0
0
VERTEX
100
AcDbVertex
100
AcDb2dVertex
8
Layer01
10
198.275989
20
0.981243
30
0.0
0
VERTEX
100
AcDbVertex
100
AcDb2dVertex
8
Layer01
10
198.808982
20
0.988492
30
0.0
0
VERTEX
100
AcDbVertex
100
AcDb2dVertex
8
Layer01
10
199.341975
20
0.995727
30
0.0
0
VERTEX
100
AcDbVertex
100
AcDb2dVertex
8
Layer01
10
199.874968
20
1.002948
30
0.0
0
VERTEX
100
AcDbVertex
100
AcDb2dVertex
8
Layer01
10
200.407961
20
1.010153
30
0.0
0
VERTEX
100
AcDbVertex
100
AcDb2dVertex
8
Layer01
10
200.940955
20
1.017342
30
0.0
0
VERTEX
100
AcDbVertex
100
AcDb2dVertex
8
Layer01
10
201.473948
20
1.024516
30
0.0
0
VERTEX
100
AcDbVertex
100
AcDb2dVertex
8
Layer01
10
202.006941
20
1.031674
30
0.0
0
VERTEX
100
AcDbVertex
100
AcDb2dVertex
8
Layer01
10
202.539934
20
1.038816
30
0.0
0
VERTEX
100
AcDbVertex
100
AcDb2dVertex
8
Layer01
10
203.072991
20
1.045942
30
0.0
0
VERTEX
100
AcDbVertex
100
AcDb2dVertex
8
Layer01
10
203.605984
20
1.053051
30
0.0
0
VERTEX
100
AcDbVertex
100
AcDb2dVertex
8
Layer01
10
204.138977
20
1.060142
30
0.0
0
VERTEX
100
AcDbVertex
100
AcDb2dVertex
8
Layer01
10
204.67197
20
1.067216
30
0.0
0
VERTEX
100
AcDbVertex
100
AcDb2dVertex
8
Layer01
10
205.204963
20
1.074272
30
0.0
0
VERTEX
100
AcDbVertex
100
AcDb2dVertex
8
Layer01
10
205.737956
20
1.08131
30
0.0
0
VERTEX
100
AcDbVertex
100
AcDb2dVertex
8
Layer01
10
206.270949
20
1.08833
30
0.0
0
VERTEX
100
AcDbVertex
100
AcDb2dVertex
8
Layer01
10
206.803943
20
1.095332
30
0.0
0
VERTEX
100
AcDbVertex
100
AcDb2dVertex
8
Layer01
10
207.336936
20
1.102314
30
0.0
0
VERTEX
100
AcDbVertex
100
AcDb2dVertex
8
Layer01
10
207.869929
20
1.109279
30
0.0
0
VERTEX
100
AcDbVertex
100
AcDb2dVertex
8
Layer01
10
208.402986
20
1.116221
30
0.0
0
VERTEX
100
AcDbVertex
100
AcDb2dVertex
8
Layer01
10
208.935979
20
1.123144
30
0.0
0
VERTEX
100
AcDbVertex
100
AcDb2dVertex
8
Layer01
10
209.468972
20
1.130049
30
0.0
0
VERTEX
100
AcDbVertex
100
AcDb2dVertex
8
Layer01
10
210.001965
20
1.136935
30
0.0
0
VERTEX
100
AcDbVertex
100
AcDb2dVertex
8
Layer01
10
210.534958
20
1.143803
30
0.0
0
VERTEX
100
AcDbVertex
100
AcDb2dVertex
8
Layer01
10
211.067951
20
1.150653
30
0.0
0
VERTEX
100
AcDbVertex
100
AcDb2dVertex
8
Layer01
10
211.600944
20
1.157485
30
0.0
0
VERTEX
100
AcDbVertex
100
AcDb2dVertex
8
Layer01
10
212.133937
20
1.1643
30
0.0
0
VERTEX
100
AcDbVertex
100
AcDb2dVertex
8
Layer01
10
212.666931
20
1.171097
30
0.0
0
VERTEX
100
AcDbVertex
100
AcDb2dVertex
8
Layer01
10
213.199924
20
1.177876
30
0.0
0
VERTEX
100
AcDbVertex
100
AcDb2dVertex
8
Layer01
10
213.732996
20
1.184645
30
0.0
0
VERTEX
100
AcDbVertex
100
AcDb2dVertex
8
Layer01
10
214.265989
20
1.191396
30
0.0
0
VERTEX
100
AcDbVertex
100
AcDb2dVertex
8
Layer01
10
214.798983
20
1.198127
30
0.0
0
VERTEX
100
AcDbVertex
100
AcDb2dVertex
8
Layer01
10
215.331976
20
1.204839
30
0.0
0
VERTEX
100
AcDbVertex
100
AcDb2dVertex
8
Layer01
10
215.864969
20
1.211531
30
0.0
0
VERTEX
100
AcDbVertex
100
AcDb2dVertex
8
Layer01
10
216.397962
20
1.218201
30
0.0
0
VERTEX
100
AcDbVertex
100
AcDb2dVertex
8
Layer01
10
216.930955
20
1.224851
30
0.0
0
VERTEX
100
AcDbVertex
100
AcDb2dVertex
8
Layer01
10
217.463948
20
1.231477
30
0.0
0
VERTEX
100
AcDbVertex
100
AcDb2dVertex
8
Layer01
10
217.996941
20
1.238081
30
0.0
0
VERTEX
100
AcDbVertex
100
AcDb2dVertex
8
Layer01
10
218.529935
20
1.244661
30
0.0
0
VERTEX
100
AcDbVertex
100
AcDb2dVertex
8
Layer01
10
219.062991
20
1.251211
30
0.0
0
VERTEX
100
AcDbVertex
100
AcDb2dVertex
8
Layer01
10
219.595984
20
1.257736
30
0.0
0
VERTEX
100
AcDbVertex
100
AcDb2dVertex
8
Layer01
10
220.128978
20
1.264236
30
0.0
0
VERTEX
100
AcDbVertex
100
AcDb2dVertex
8
Layer01
10
220.661971
20
1.270711
30
0.0
0
VERTEX
100
AcDbVertex
100
AcDb2dVertex
8
Layer01
10
221.194964
20
1.277162
30
0.0
0
VERTEX
100
AcDbVertex
100
AcDb2dVertex
8
Layer01
10
221.727957
20
1.283588
30
0.0
0
VERTEX
100
AcDbVertex
100
AcDb2dVertex
8
Layer01
10
222.26095
20
1.28999
30
0.0
0
VERTEX
100
AcDbVertex
100
AcDb2dVertex
8
Layer01
10
222.793943
20
1.296367
30
0.0
0
VERTEX
100
AcDbVertex
100
AcDb2dVertex
8
Layer01
10
223.326936
20
1.302719
30
0.0
0
VERTEX
100
AcDbVertex
100
AcDb2dVertex
8
Layer01
10
223.859929
20
1.309047
30
0.0
0
VERTEX
100
AcDbVertex
100
AcDb2dVertex
8
Layer01
10
224.392986
20
1.315355
30
0.0
0
VERTEX
100
AcDbVertex
100
AcDb2dVertex
8
Layer01
10
224.925979
20
1.321637
30
0.0
0
VERTEX
100
AcDbVertex
100
AcDb2dVertex
8
Layer01
10
225.458972
20
1.327894
30
0.0
0
VERTEX
100
AcDbVertex
100
AcDb2dVertex
8
Layer01
10
225.991966
20
1.334127
30
0.0
0
VERTEX
100
AcDbVertex
100
AcDb2dVertex
8
Layer01
10
226.524959
20
1.340334
30
0.0
0
VERTEX
100
AcDbVertex
100
AcDb2dVertex
8
Layer01
10
227.057952
20
1.346516
30
0.0
0
VERTEX
100
AcDbVertex
100
AcDb2dVertex
8
Layer01
10
227.590945
20
1.352671
30
0.0
0
VERTEX
100
AcDbVertex
100
AcDb2dVertex
8
Layer01
10
228.123938
20
1.358801
30
0.0
0
VERTEX
100
AcDbVertex
100
AcDb2dVertex
8
Layer01
10
228.656931
20
1.364905
30
0.0
0
VERTEX
100
AcDbVertex
100
AcDb2dVertex
8
Layer01
10
229.189924
20
1.370982
30
0.0
0
VERTEX
100
AcDbVertex
100
AcDb2dVertex
8
Layer01
10
229.722997
20
1.377032
30
0.0
0
VERTEX
100
AcDbVertex
100
AcDb2dVertex
8
Layer01
10
230.25599
20
1.383054
30
0.0
0
VERTEX
100
AcDbVertex
100
AcDb2dVertex
8
Layer01
10
230.788983
20
1.389049
30
0.0
0
VERTEX
100
AcDbVertex
100
AcDb2dVertex
8
Layer01
10
231.321976
20
1.395017
30
0.0
0
VERTEX
100
AcDbVertex
100
AcDb2dVertex
8
Layer01
10
231.85497
20
1.400958
30
0.0
0
VERTEX
100
AcDbVertex
100
AcDb2dVertex
8
Layer01
10
232.387963
20
1.406872
30
0.0
0
VERTEX
100
AcDbVertex
100
AcDb2dVertex
8
Layer01
10
232.920956
20
1.412758
30
0.0
0
VERTEX
100
AcDbVertex
100
AcDb2dVertex
8
Layer01
10
233.453949
20
1.418617
30
0.0
0
VERTEX
100
AcDbVertex
100
AcDb2dVertex
8
Layer01
10
233.986942
20
1.424448
30
0.0
0
VERTEX
100
AcDbVertex
100
AcDb2dVertex
8
Layer01
10
234.519935
20
1.430251
30
0.0
0
VERTEX
100
AcDbVertex
100
AcDb2dVertex
8
Layer01
10
235.052992
20
1.436029
30
0.0
0
VERTEX
100
AcDbVertex
100
AcDb2dVertex
8
Layer01
10
235.585985
20
1.441778
30
0.0
0
VERTEX
100
AcDbVertex
100
AcDb2dVertex
8
Layer01
10
236.118978
20
1.447499
30
0.0
0
VERTEX
100
AcDbVertex
100
AcDb2dVertex
8
Layer01
10
236.651971
20
1.453191
30
0.0
0
VERTEX
100
AcDbVertex
100
AcDb2dVertex
8
Layer01
10
237.184964
20
1.458856
30
0.0
0
VERTEX
100
AcDbVertex
100
AcDb2dVertex
8
Layer01
10
237.717958
20
1.464492
30
0.0
0
VERTEX
100
AcDbVertex
100
AcDb2dVertex
8
Layer01
10
238.250951
20
1.470099
30
0.0
0
VERTEX
100
AcDbVertex
100
AcDb2dVertex
8
Layer01
10
238.783944
20
1.475678
30
0.0
0
VERTEX
100
AcDbVertex
100
AcDb2dVertex
8
Layer01
10
239.316937
20
1.481228
30
0.0
0
VERTEX
100
AcDbVertex
100
AcDb2dVertex
8
Layer01
10
239.84993
20
1.486749
30
0.0
0
VERTEX
100
AcDbVertex
100
AcDb2dVertex
8
Layer01
10
240.382987
20
1.492241
30
0.0
0
VERTEX
100
AcDbVertex
100
AcDb2dVertex
8
Layer01
10
240.91598
20
1.497702
30
0.0
0
VERTEX
100
AcDbVertex
100
AcDb2dVertex
8
Layer01
10
241.448973
20
1.503135
30
0.0
0
VERTEX
100
AcDbVertex
100
AcDb2dVertex
8
Layer01
10
241.981966
20
1.50854
30
0.0
0
VERTEX
100
AcDbVertex
100
AcDb2dVertex
8
Layer01
10
242.514959
20
1.513916
30
0.0
0
VERTEX
100
AcDbVertex
100
AcDb2dVertex
8
Layer01
10
243.047952
20
1.519263
30
0.0
0
VERTEX
100
AcDbVertex
100
AcDb2dVertex
8
Layer01
10
243.580946
20
1.524582
30
0.0
0
VERTEX
100
AcDbVertex
100
AcDb2dVertex
8
Layer01
10
244.113939
20
1.529872
30
0.0
0
VERTEX
100
AcDbVertex
100
AcDb2dVertex
8
Layer01
10
244.646932
20
1.535135
30
0.0
0
VERTEX
100
AcDbVertex
100
AcDb2dVertex
8
Layer01
10
245.179925
20
1.540369
30
0.0
0
VERTEX
100
AcDbVertex
100
AcDb2dVertex
8
Layer01
10
245.712998
20
1.545579
30
0.0
0
VERTEX
100
AcDbVertex
100
AcDb2dVertex
8
Layer01
10
246.245991
20
1.55076
30
0.0
0
VERTEX
100
AcDbVertex
100
AcDb2dVertex
8
Layer01
10
246.778984
20
1.555912
30
0.0
0
VERTEX
100
AcDbVertex
100
AcDb2dVertex
8
Layer01
10
247.311977
20
1.561035
30
0.0
0
VERTEX
100
AcDbVertex
100
AcDb2dVertex
8
Layer01
10
247.84497
20
1.56613
30
0.0
0
VERTEX
100
AcDbVertex
100
AcDb2dVertex
8
Layer01
10
248.377963
20
1.571196
30
0.0
0
VERTEX
100
AcDbVertex
100
AcDb2dVertex
8
Layer01
10
248.910956
20
1.576232
30
0.0
0
VERTEX
100
AcDbVertex
100
AcDb2dVertex
8
Layer01
10
249.44395
20
1.581239
30
0.0
0
VERTEX
100
AcDbVertex
100
AcDb2dVertex
8
Layer01
10
249.976943
20
1.586217
30
0.0
0
VERTEX
100
AcDbVertex
100
AcDb2dVertex
8
Layer01
10
250.509936
20
1.591164
30
0.0
0
VERTEX
100
AcDbVertex
100
AcDb2dVertex
8
Layer01
10
251.042993
20
1.59608
30
0.0
0
VERTEX
100
AcDbVertex
100
AcDb2dVertex
8
Layer01
10
251.575986
20
1.600965
30
0.0
0
VERTEX
100
AcDbVertex
100
AcDb2dVertex
8
Layer01
10
252.108979
20
1.60582
30
0.0
0
VERTEX
100
AcDbVertex
100
AcDb2dVertex
8
Layer01
10
252.641972
20
1.610646
30
0.0
0
VERTEX
100
AcDbVertex
100
AcDb2dVertex
8
Layer01
10
253.174965
20
1.615441
30
0.0
0
VERTEX
100
AcDbVertex
100
AcDb2dVertex
8
Layer01
10
253.707958
20
1.620207
30
0.0
0
VERTEX
100
AcDbVertex
100
AcDb2dVertex
8
Layer01
10
254.240951
20
1.624943
30
0.0
0
VERTEX
100
AcDbVertex
100
AcDb2dVertex
8
Layer01
10
254.773944
20
1.62965
30
0.0
0
VERTEX
100
AcDbVertex
100
AcDb2dVertex
8
Layer01
10
255.306938
20
1.634327
30
0.0
0
VERTEX
100
AcDbVertex
100
AcDb2dVertex
8
Layer01
10
255.839931
20
1.638974
30
0.0
0
VERTEX
100
AcDbVertex
100
AcDb2dVertex
8
Layer01
10
256.372987
20
1.643587
30
0.0
0
VERTEX
100
AcDbVertex
100
AcDb2dVertex
8
Layer01
10
256.905981
20
1.64817
30
0.0
0
VERTEX
100
AcDbVertex
100
AcDb2dVertex
8
Layer01
10
257.438974
20
1.652725
30
0.0
0
VERTEX
100
AcDbVertex
100
AcDb2dVertex
8
Layer01
10
257.971967
20
1.657253
30
0.0
0
VERTEX
100
AcDbVertex
100
AcDb2dVertex
8
Layer01
10
258.50496
20
1.661753
30
0.0
0
VERTEX
100
AcDbVertex
100
AcDb2dVertex
8
Layer01
10
259.037953
20
1.666226
30
0.0
0
VERTEX
100
AcDbVertex
100
AcDb2dVertex
8
Layer01
10
259.570946
20
1.670673
30
0.0
0
VERTEX
100
AcDbVertex
100
AcDb2dVertex
8
Layer01
10
260.103939
20
1.675093
30
0.0
0
VERTEX
100
AcDbVertex
100
AcDb2dVertex
8
Layer01
10
260.636933
20
1.679487
30
0.0
0
VERTEX
100
AcDbVertex
100
AcDb2dVertex
8
Layer01
10
261.169926
20
1.683853
30
0.0
0
VERTEX
100
AcDbVertex
100
AcDb2dVertex
8
Layer01
10
261.702998
20
1.688223
30
0.0
0
VERTEX
100
AcDbVertex
100
AcDb2dVertex
8
Layer01
10
262.235991
20
1.692563
30
0.0
0
VERTEX
100
AcDbVertex
100
AcDb2dVertex
8
Layer01
10
262.768984
20
1.696868
30
0.0
0
VERTEX
100
AcDbVertex
100
AcDb2dVertex
8
Layer01
10
263.301978
20
1.701137
30
0.0
0
VERTEX
100
AcDbVertex
100
AcDb2dVertex
8
Layer01
10
263.834971
20
1.705366
30
0.0
0
VERTEX
100
AcDbVertex
100
AcDb2dVertex
8
Layer01
10
264.367964
20
1.709551
30
0.0
0
VERTEX
100
AcDbVertex
100
AcDb2dVertex
8
Layer01
10
264.900957
20
1.71369
30
0.0
0
VERTEX
100
AcDbVertex
100
AcDb2dVertex
8
Layer01
10
265.43395
20
1.71778
30
0.0
0
VERTEX
100
AcDbVertex
100
AcDb2dVertex
8
Layer01
10
265.966943
20
1.721817
30
0.0
0
VERTEX
100
AcDbVertex
100
AcDb2dVertex
8
Layer01
10
266.499936
20
1.7258
30
0.0
0
VERTEX
100
AcDbVertex
100
AcDb2dVertex
8
Layer01
10
267.032993
20
1.729682
30
0.0
0
VERTEX
100
AcDbVertex
100
AcDb2dVertex
8
Layer01
10
267.565986
20
1.733508
30
0.0
0
VERTEX
100
AcDbVertex
100
AcDb2dVertex
8
Layer01
10
268.098979
20
1.737283
30
0.0
0
VERTEX
100
AcDbVertex
100
AcDb2dVertex
8
Layer01
10
268.631973
20
1.741009
30
0.0
0
VERTEX
100
AcDbVertex
100
AcDb2dVertex
8
Layer01
10
269.164966
20
1.74469
30
0.0
0
VERTEX
100
AcDbVertex
100
AcDb2dVertex
8
Layer01
10
269.697959
20
1.748328
30
0.0
0
VERTEX
100
AcDbVertex
100
AcDb2dVertex
8
Layer01
10
270.230952
20
1.751927
30
0.0
0
VERTEX
100
AcDbVertex
100
AcDb2dVertex
8
Layer01
10
270.763945
20
1.75549
30
0.0
0
VERTEX
100
AcDbVertex
100
AcDb2dVertex
8
Layer01
10
271.296938
20
1.759021
30
0.0
0
VERTEX
100
AcDbVertex
100
AcDb2dVertex
8
Layer01
10
271.829931
20
1.762524
30
0.0
0
VERTEX
100
AcDbVertex
100
AcDb2dVertex
8
Layer01
10
272.362988
20
1.766031
30
0.0
0
VERTEX
100
AcDbVertex
100
AcDb2dVertex
8
Layer01
10
272.895981
20
1.769512
30
0.0
0
VERTEX
100
AcDbVertex
100
AcDb2dVertex
8
Layer01
10
273.428974
20
1.77297
30
0.0
0
VERTEX
100
AcDbVertex
100
AcDb2dVertex
8
Layer01
10
273.961967
20
1.776405
30
0.0
0
VERTEX
100
AcDbVertex
100
AcDb2dVertex
8
Layer01
10
274.494961
20
1.779816
30
0.0
0
VERTEX
100
AcDbVertex
100
AcDb2dVertex
8
Layer01
10
275.027954
20
1.783204
30
0.0
0
VERTEX
100
AcDbVertex
100
AcDb2dVertex
8
Layer01
10
275.560947
20
1.78657
30
0.0
0
VERTEX
100
AcDbVertex
100
AcDb2dVertex
8
Layer01
10
276.09394
20
1.789913
30
0.0
0
VERTEX
100
AcDbVertex
100
AcDb2dVertex
8
Layer01
10
276.626933
20
1.793233
30
0.0
0
VERTEX
100
AcDbVertex
100
AcDb2dVertex
8
Layer01
10
277.159926
20
1.796529
30
0.0
0
VERTEX
100
AcDbVertex
100
AcDb2dVertex
8
Layer01
10
277.692983
20
1.799798
30
0.0
0
VERTEX
100
AcDbVertex
100
AcDb2dVertex
8
Layer01
10
278.225976
20
1.803043
30
0.0
0
VERTEX
100
AcDbVertex
100
AcDb2dVertex
8
Layer01
10
278.758969
20
1.806265
30
0.0
0
VERTEX
100
AcDbVertex
100
AcDb2dVertex
8
Layer01
10
279.291962
20
1.809464
30
0.0
0
VERTEX
100
AcDbVertex
100
AcDb2dVertex
8
Layer01
10
279.824956
20
1.812641
30
0.0
0
VERTEX
100
AcDbVertex
100
AcDb2dVertex
8
Layer01
10
280.357949
20
1.815795
30
0.0
0
VERTEX
100
AcDbVertex
100
AcDb2dVertex
8
Layer01
10
280.890942
20
1.818927
30
0.0
0
VERTEX
100
AcDbVertex
100
AcDb2dVertex
8
Layer01
10
281.423935
20
1.822037
30
0.0
0
VERTEX
100
AcDbVertex
100
AcDb2dVertex
8
Layer01
10
281.956928
20
1.825124
30
0.0
0
VERTEX
100
AcDbVertex
100
AcDb2dVertex
8
Layer01
10
282.489921
20
1.82819
30
0.0
0
VERTEX
100
AcDbVertex
100
AcDb2dVertex
8
Layer01
10
283.022978
20
1.831233
30
0.0
0
VERTEX
100
AcDbVertex
100
AcDb2dVertex
8
Layer01
10
283.555971
20
1.834254
30
0.0
0
VERTEX
100
AcDbVertex
100
AcDb2dVertex
8
Layer01
10
284.088964
20
1.837254
30
0.0
0
VERTEX
100
AcDbVertex
100
AcDb2dVertex
8
Layer01
10
284.621957
20
1.840232
30
0.0
0
VERTEX
100
AcDbVertex
100
AcDb2dVertex
8
Layer01
10
285.15495
20
1.843189
30
0.0
0
VERTEX
100
AcDbVertex
100
AcDb2dVertex
8
Layer01
10
285.687944
20
1.846125
30
0.0
0
VERTEX
100
AcDbVertex
100
AcDb2dVertex
8
Layer01
10
286.220937
20
1.84904
30
0.0
0
VERTEX
100
AcDbVertex
100
AcDb2dVertex
8
Layer01
10
286.75393
20
1.851935
30
0.0
0
VERTEX
100
AcDbVertex
100
AcDb2dVertex
8
Layer01
10
287.286923
20
1.85481
30
0.0
0
VERTEX
100
AcDbVertex
100
AcDb2dVertex
8
Layer01
10
287.819916
20
1.857664
30
0.0
0
VERTEX
100
AcDbVertex
100
AcDb2dVertex
8
Layer01
10
288.353005
20
1.860498
30
0.0
0
VERTEX
100
AcDbVertex
100
AcDb2dVertex
8
Layer01
10
288.885998
20
1.863312
30
0.0
0
VERTEX
100
AcDbVertex
100
AcDb2dVertex
8
Layer01
10
289.418991
20
1.866107
30
0.0
0
VERTEX
100
AcDbVertex
100
AcDb2dVertex
8
Layer01
10
289.951984
20
1.868884
30
0.0
0
VERTEX
100
AcDbVertex
100
AcDb2dVertex
8
Layer01
10
290.484977
20
1.871641
30
0.0
0
VERTEX
100
AcDbVertex
100
AcDb2dVertex
8
Layer01
10
291.01797
20
1.874381
30
0.0
0
VERTEX
100
AcDbVertex
100
AcDb2dVertex
8
Layer01
10
291.550963
20
1.877103
30
0.0
0
VERTEX
100
AcDbVertex
100
AcDb2dVertex
8
Layer01
10
292.083957
20
1.879808
30
0.0
0
VERTEX
100
AcDbVertex
100
AcDb2dVertex
8
Layer01
10
292.61695
20
1.882496
30
0.0
0
VERTEX
100
AcDbVertex
100
AcDb2dVertex
8
Layer01
10
293.149943
20
1.885167
30
0.0
0
VERTEX
100
AcDbVertex
100
AcDb2dVertex
8
Layer01
10
293.682999
20
1.887825
30
0.0
0
VERTEX
100
AcDbVertex
100
AcDb2dVertex
8
Layer01
10
294.215993
20
1.890465
30
0.0
0
VERTEX
100
AcDbVertex
100
AcDb2dVertex
8
Layer01
10
294.748986
20
1.89309
30
0.0
0
VERTEX
100
AcDbVertex
100
AcDb2dVertex
8
Layer01
10
295.281979
20
1.895699
30
0.0
0
VERTEX
100
AcDbVertex
100
AcDb2dVertex
8
Layer01
10
295.814972
20
1.898291
30
0.0
0
VERTEX
100
AcDbVertex
100
AcDb2dVertex
8
Layer01
10
296.347965
20
1.900868
30
0.0
0
VERTEX
100
AcDbVertex
100
AcDb2dVertex
8
Layer01
10
296.880958
20
1.903429
30
0.0
0
VERTEX
100
AcDbVertex
100
AcDb2dVertex
8
Layer01
10
297.413951
20
1.905974
30
0.0
0
VERTEX
100
AcDbVertex
100
AcDb2dVertex
8
Layer01
10
297.946945
20
1.908504
30
0.0
0
VERTEX
100
AcDbVertex
100
AcDb2dVertex
8
Layer01
10
298.479938
20
1.911018
30
0.0
0
VERTEX
100
AcDbVertex
100
AcDb2dVertex
8
Layer01
10
299.012994
20
1.913514
30
0.0
0
VERTEX
100
AcDbVertex
100
AcDb2dVertex
8
Layer01
10
299.545988
20
1.915995
30
0.0
0
VERTEX
100
AcDbVertex
100
AcDb2dVertex
8
Layer01
10
300.078981
20
1.918461
30
0.0
0
VERTEX
100
AcDbVertex
100
AcDb2dVertex
8
Layer01
10
300.611974
20
1.920912
30
0.0
0
VERTEX
100
AcDbVertex
100
AcDb2dVertex
8
Layer01
10
301.144967
20
1.923349
30
0.0
0
VERTEX
100
AcDbVertex
100
AcDb2dVertex
8
Layer01
10
301.67796
20
1.925771
30
0.0
0
VERTEX
100
AcDbVertex
100
AcDb2dVertex
8
Layer01
10
302.210953
20
1.92818
30
0.0
0
VERTEX
100
AcDbVertex
100
AcDb2dVertex
8
Layer01
10
302.743946
20
1.930574
30
0.0
0
VERTEX
100
AcDbVertex
100
AcDb2dVertex
8
Layer01
10
303.27694
20
1.932955
30
0.0
0
VERTEX
100
AcDbVertex
100
AcDb2dVertex
8
Layer01
10
303.809933
20
1.935323
30
0.0
0
VERTEX
100
AcDbVertex
100
AcDb2dVertex
8
Layer01
10
304.342989
20
1.93768
30
0.0
0
VERTEX
100
AcDbVertex
100
AcDb2dVertex
8
Layer01
10
304.875982
20
1.940024
30
0.0
0
VERTEX
100
AcDbVertex
100
AcDb2dVertex
8
Layer01
10
305.408976
20
1.942354
30
0.0
0
VERTEX
100
AcDbVertex
100
AcDb2dVertex
8
Layer01
10
305.941969
20
1.944671
30
0.0
0
VERTEX
100
AcDbVertex
100
AcDb2dVertex
8
Layer01
10
306.474962
20
1.946976
30
0.0
0
VERTEX
100
AcDbVertex
100
AcDb2dVertex
8
Layer01
10
307.007955
20
1.949266
30
0.0
0
VERTEX
100
AcDbVertex
100
AcDb2dVertex
8
Layer01
10
307.540948
20
1.951544
30
0.0
0
VERTEX
100
AcDbVertex
100
AcDb2dVertex
8
Layer01
10
308.073941
20
1.953808
30
0.0
0
VERTEX
100
AcDbVertex
100
AcDb2dVertex
8
Layer01
10
308.606934
20
1.956058
30
0.0
0
VERTEX
100
AcDbVertex
100
AcDb2dVertex
8
Layer01
10
309.139928
20
1.958295
30
0.0
0
VERTEX
100
AcDbVertex
100
AcDb2dVertex
8
Layer01
10
309.672984
20
1.960546
30
0.0
0
VERTEX
100
AcDbVertex
100
AcDb2dVertex
8
Layer01
10
310.205977
20
1.962781
30
0.0
0
VERTEX
100
AcDbVertex
100
AcDb2dVertex
8
Layer01
10
310.738971
20
1.964999
30
0.0
0
VERTEX
100
AcDbVertex
100
AcDb2dVertex
8
Layer01
10
311.271964
20
1.967197
30
0.0
0
VERTEX
100
AcDbVertex
100
AcDb2dVertex
8
Layer01
10
311.804957
20
1.969375
30
0.0
0
VERTEX
100
AcDbVertex
100
AcDb2dVertex
8
Layer01
10
312.33795
20
1.971531
30
0.0
0
VERTEX
100
AcDbVertex
100
AcDb2dVertex
8
Layer01
10
312.870943
20
1.973665
30
0.0
0
VERTEX
100
AcDbVertex
100
AcDb2dVertex
8
Layer01
10
313.403936
20
1.975776
30
0.0
0
VERTEX
100
AcDbVertex
100
AcDb2dVertex
8
Layer01
10
313.936929
20
1.977866
30
0.0
0
VERTEX
100
AcDbVertex
100
AcDb2dVertex
8
Layer01
10
314.469922
20
1.979935
30
0.0
0
VERTEX
100
AcDbVertex
100
AcDb2dVertex
8
Layer01
10
315.002979
20
1.981865
30
0.0
0
VERTEX
100
AcDbVertex
100
AcDb2dVertex
8
Layer01
10
315.535972
20
1.983788
30
0.0
0
VERTEX
100
AcDbVertex
100
AcDb2dVertex
8
Layer01
10
316.068965
20
1.985718
30
0.0
0
VERTEX
100
AcDbVertex
100
AcDb2dVertex
8
Layer01
10
316.601959
20
1.987666
30
0.0
0
VERTEX
100
AcDbVertex
100
AcDb2dVertex
8
Layer01
10
317.134952
20
1.989647
30
0.0
0
VERTEX
100
AcDbVertex
100
AcDb2dVertex
8
Layer01
10
317.667945
20
1.991672
30
0.0
0
VERTEX
100
AcDbVertex
100
AcDb2dVertex
8
Layer01
10
318.200938
20
1.993755
30
0.0
0
VERTEX
100
AcDbVertex
100
AcDb2dVertex
8
Layer01
10
318.733931
20
1.995906
30
0.0
0
VERTEX
100
AcDbVertex
100
AcDb2dVertex
8
Layer01
10
319.266924
20
1.998137
30
0.0
0
VERTEX
100
AcDbVertex
100
AcDb2dVertex
8
Layer01
10
319.799917
20
2.000455
30
0.0
0
VERTEX
100
AcDbVertex
100
AcDb2dVertex
8
Layer01
10
320.333006
20
2.003054
30
0.0
0
VERTEX
100
AcDbVertex
100
AcDb2dVertex
8
Layer01
10
320.865999
20
2.00574
30
0.0
0
VERTEX
100
AcDbVertex
100
AcDb2dVertex
8
Layer01
10
321.398992
20
2.008503
30
0.0
0
VERTEX
100
AcDbVertex
100
AcDb2dVertex
8
Layer01
10
321.931985
20
2.011332
30
0.0
0
VERTEX
100
AcDbVertex
100
AcDb2dVertex
8
Layer01
10
322.464978
20
2.014215
30
0.0
0
VERTEX
100
AcDbVertex
100
AcDb2dVertex
8
Layer01
10
322.997972
20
2.01714
30
0.0
0
VERTEX
100
AcDbVertex
100
AcDb2dVertex
8
Layer01
10
323.530965
20
2.020091
30
0.0
0
VERTEX
100
AcDbVertex
100
AcDb2dVertex
8
Layer01
10
324.063958
20
2.023056
30
0.0
0
VERTEX
100
AcDbVertex
100
AcDb2dVertex
8
Layer01
10
324.596951
20
2.02602
30
0.0
0
VERTEX
100
AcDbVertex
100
AcDb2dVertex
8
Layer01
10
325.129944
20
2.028971
30
0.0
0
VERTEX
100
AcDbVertex
100
AcDb2dVertex
8
Layer01
10
325.663001
20
2.031774
30
0.0
0
VERTEX
100
AcDbVertex
100
AcDb2dVertex
8
Layer01
10
326.195994
20
2.034547
30
0.0
0
VERTEX
100
AcDbVertex
100
AcDb2dVertex
8
Layer01
10
326.728987
20
2.03729
30
0.0
0
VERTEX
100
AcDbVertex
100
AcDb2dVertex
8
Layer01
10
327.26198
20
2.039999
30
0.0
0
VERTEX
100
AcDbVertex
100
AcDb2dVertex
8
Layer01
10
327.794973
20
2.042675
30
0.0
0
VERTEX
100
AcDbVertex
100
AcDb2dVertex
8
Layer01
10
328.327966
20
2.045318
30
0.0
0
VERTEX
100
AcDbVertex
100
AcDb2dVertex
8
Layer01
10
328.86096
20
2.047928
30
0.0
0
VERTEX
100
AcDbVertex
100
AcDb2dVertex
8
Layer01
10
329.393953
20
2.050505
30
0.0
0
VERTEX
100
AcDbVertex
100
AcDb2dVertex
8
Layer01
10
329.926946
20
2.053052
30
0.0
0
VERTEX
100
AcDbVertex
100
AcDb2dVertex
8
Layer01
10
330.459939
20
2.055568
30
0.0
0
VERTEX
100
AcDbVertex
100
AcDb2dVertex
8
Layer01
10
330.992996
20
2.058084
30
0.0
0
VERTEX
100
AcDbVertex
100
AcDb2dVertex
8
Layer01
10
331.525989
20
2.06057
30
0.0
0
VERTEX
100
AcDbVertex
100
AcDb2dVertex
8
Layer01
10
332.058982
20
2.063025
30
0.0
0
VERTEX
100
AcDbVertex
100
AcDb2dVertex
8
Layer01
10
332.591975
20
2.065449
30
0.0
0
VERTEX
100
AcDbVertex
100
AcDb2dVertex
8
Layer01
10
333.124968
20
2.067841
30
0.0
0
VERTEX
100
AcDbVertex
100
AcDb2dVertex
8
Layer01
10
333.657961
20
2.0702
30
0.0
0
VERTEX
100
AcDbVertex
100
AcDb2dVertex
8
Layer01
10
334.190955
20
2.072524
30
0.0
0
VERTEX
100
AcDbVertex
100
AcDb2dVertex
8
Layer01
10
334.723948
20
2.074814
30
0.0
0
VERTEX
100
AcDbVertex
100
AcDb2dVertex
8
Layer01
10
335.256941
20
2.077068
30
0.0
0
VERTEX
100
AcDbVertex
100
AcDb2dVertex
8
Layer01
10
335.789934
20
2.079286
30
0.0
0
VERTEX
100
AcDbVertex
100
AcDb2dVertex
8
Layer01
10
336.322991
20
2.081467
30
0.0
0
VERTEX
100
AcDbVertex
100
AcDb2dVertex
8
Layer01
10
336.855984
20
2.083609
30
0.0
0
VERTEX
100
AcDbVertex
100
AcDb2dVertex
8
Layer01
10
337.388977
20
2.085713
30
0.0
0
VERTEX
100
AcDbVertex
100
AcDb2dVertex
8
Layer01
10
337.92197
20
2.087776
30
0.0
0
VERTEX
100
AcDbVertex
100
AcDb2dVertex
8
Layer01
10
338.454963
20
2.089799
30
0.0
0
VERTEX
100
AcDbVertex
100
AcDb2dVertex
8
Layer01
10
338.987956
20
2.09178
30
0.0
0
VERTEX
100
AcDbVertex
100
AcDb2dVertex
8
Layer01
10
339.520949
20
2.093719
30
0.0
0
VERTEX
100
AcDbVertex
100
AcDb2dVertex
8
Layer01
10
340.053943
20
2.095615
30
0.0
0
VERTEX
100
AcDbVertex
100
AcDb2dVertex
8
Layer01
10
340.586936
20
2.097467
30
0.0
0
VERTEX
100
AcDbVertex
100
AcDb2dVertex
8
Layer01
10
341.119929
20
2.099274
30
0.0
0
VERTEX
100
AcDbVertex
100
AcDb2dVertex
8
Layer01
10
341.652986
20
2.101035
30
0.0
0
VERTEX
100
AcDbVertex
100
AcDb2dVertex
8
Layer01
10
342.185979
20
2.10275
30
0.0
0
VERTEX
100
AcDbVertex
100
AcDb2dVertex
8
Layer01
10
342.718972
20
2.104417
30
0.0
0
VERTEX
100
AcDbVertex
100
AcDb2dVertex
8
Layer01
10
343.251965
20
2.106036
30
0.0
0
VERTEX
100
AcDbVertex
100
AcDb2dVertex
8
Layer01
10
343.784958
20
2.107605
30
0.0
0
VERTEX
100
AcDbVertex
100
AcDb2dVertex
8
Layer01
10
344.317951
20
2.109124
30
0.0
0
VERTEX
100
AcDbVertex
100
AcDb2dVertex
8
Layer01
10
344.850944
20
2.110592
30
0.0
0
VERTEX
100
AcDbVertex
100
AcDb2dVertex
8
Layer01
10
345.383937
20
2.112007
30
0.0
0
VERTEX
100
AcDbVertex
100
AcDb2dVertex
8
Layer01
10
345.916931
20
2.113369
30
0.0
0
VERTEX
100
AcDbVertex
100
AcDb2dVertex
8
Layer01
10
346.449924
20
2.114677
30
0.0
0
VERTEX
100
AcDbVertex
100
AcDb2dVertex
8
Layer01
10
346.98298
20
2.11593
30
0.0
0
VERTEX
100
AcDbVertex
100
AcDb2dVertex
8
Layer01
10
347.515974
20
2.117127
30
0.0
0
VERTEX
100
AcDbVertex
100
AcDb2dVertex
8
Layer01
10
348.048967
20
2.118267
30
0.0
0
VERTEX
100
AcDbVertex
100
AcDb2dVertex
8
Layer01
10
348.58196
20
2.11935
30
0.0
0
VERTEX
100
AcDbVertex
100
AcDb2dVertex
8
Layer01
10
349.114953
20
2.120374
30
0.0
0
VERTEX
100
AcDbVertex
100
AcDb2dVertex
8
Layer01
10
349.647946
20
2.12134
30
0.0
0
VERTEX
100
AcDbVertex
100
AcDb2dVertex
8
Layer01
10
350.180939
20
2.122245
30
0.0
0
VERTEX
100
AcDbVertex
100
AcDb2dVertex
8
Layer01
10
350.713932
20
2.123089
30
0.0
0
VERTEX
100
AcDbVertex
100
AcDb2dVertex
8
Layer01
10
351.246926
20
2.123871
30
0.0
0
VERTEX
100
AcDbVertex
100
AcDb2dVertex
8
Layer01
10
351.779919
20
2.124591
30
0.0
0
VERTEX
100
AcDbVertex
100
AcDb2dVertex
8
Layer01
10
352.313007
20
2.125248
30
0.0
0
VERTEX
100
AcDbVertex
100
AcDb2dVertex
8
Layer01
10
352.846
20
2.125841
30
0.0
0
VERTEX
100
AcDbVertex
100
AcDb2dVertex
8
Layer01
10
353.378993
20
2.126369
30
0.0
0
VERTEX
100
AcDbVertex
100
AcDb2dVertex
8
Layer01
10
353.911987
20
2.12683
30
0.0
0
VERTEX
100
AcDbVertex
100
AcDb2dVertex
8
Layer01
10
354.44498
20
2.127225
30
0.0
0
VERTEX
100
AcDbVertex
100
AcDb2dVertex
8
Layer01
10
354.977973
20
2.127552
30
0.0
0
VERTEX
100
AcDbVertex
100
AcDb2dVertex
8
Layer01
10
355.510966
20
2.127809
30
0.0
0
VERTEX
100
AcDbVertex
100
AcDb2dVertex
8
Layer01
10
356.043959
20
2.127998
30
0.0
0
VERTEX
100
AcDbVertex
100
AcDb2dVertex
8
Layer01
10
356.576952
20
2.128116
30
0.0
0
VERTEX
100
AcDbVertex
100
AcDb2dVertex
8
Layer01
10
357.109945
20
2.128162
30
0.0
0
VERTEX
100
AcDbVertex
100
AcDb2dVertex
8
Layer01
10
357.643002
20
2.128136
30
0.0
0
VERTEX
100
AcDbVertex
100
AcDb2dVertex
8
Layer01
10
358.175995
20
2.128036
30
0.0
0
VERTEX
100
AcDbVertex
100
AcDb2dVertex
8
Layer01
10
358.708988
20
2.127863
30
0.0
0
VERTEX
100
AcDbVertex
100
AcDb2dVertex
8
Layer01
10
359.241981
20
2.127616
30
0.0
0
VERTEX
100
AcDbVertex
100
AcDb2dVertex
8
Layer01
10
359.774975
20
2.127294
30
0.0
0
VERTEX
100
AcDbVertex
100
AcDb2dVertex
8
Layer01
10
360.307968
20
2.126897
30
0.0
0
VERTEX
100
AcDbVertex
100
AcDb2dVertex
8
Layer01
10
360.840961
20
2.126423
30
0.0
0
VERTEX
100
AcDbVertex
100
AcDb2dVertex
8
Layer01
10
361.373954
20
2.125872
30
0.0
0
VERTEX
100
AcDbVertex
100
AcDb2dVertex
8
Layer01
10
361.906947
20
2.125244
30
0.0
0
VERTEX
100
AcDbVertex
100
AcDb2dVertex
8
Layer01
10
362.43994
20
2.124538
30
0.0
0
VERTEX
100
AcDbVertex
100
AcDb2dVertex
8
Layer01
10
362.972997
20
2.123734
30
0.0
0
VERTEX
100
AcDbVertex
100
AcDb2dVertex
8
Layer01
10
363.50599
20
2.122853
30
0.0
0
VERTEX
100
AcDbVertex
100
AcDb2dVertex
8
Layer01
10
364.038983
20
2.121894
30
0.0
0
VERTEX
100
AcDbVertex
100
AcDb2dVertex
8
Layer01
10
364.571976
20
2.120858
30
0.0
0
VERTEX
100
AcDbVertex
100
AcDb2dVertex
8
Layer01
10
365.10497
20
2.119745
30
0.0
0
VERTEX
100
AcDbVertex
100
AcDb2dVertex
8
Layer01
10
365.637963
20
2.118556
30
0.0
0
VERTEX
100
AcDbVertex
100
AcDb2dVertex
8
Layer01
10
366.170956
20
2.11729
30
0.0
0
VERTEX
100
AcDbVertex
100
AcDb2dVertex
8
Layer01
10
366.703949
20
2.115947
30
0.0
0
VERTEX
100
AcDbVertex
100
AcDb2dVertex
8
Layer01
10
367.236942
20
2.114526
30
0.0
0
VERTEX
100
AcDbVertex
100
AcDb2dVertex
8
Layer01
10
367.769935
20
2.113025
30
0.0
0
VERTEX
100
AcDbVertex
100
AcDb2dVertex
8
Layer01
10
368.302992
20
2.111523
30
0.0
0
VERTEX
100
AcDbVertex
100
AcDb2dVertex
8
Layer01
10
368.835985
20
2.109931
30
0.0
0
VERTEX
100
AcDbVertex
100
AcDb2dVertex
8
Layer01
10
369.368978
20
2.10824
30
0.0
0
VERTEX
100
AcDbVertex
100
AcDb2dVertex
8
Layer01
10
369.901971
20
2.106441
30
0.0
0
VERTEX
100
AcDbVertex
100
AcDb2dVertex
8
Layer01
10
370.434964
20
2.104524
30
0.0
0
VERTEX
100
AcDbVertex
100
AcDb2dVertex
8
Layer01
10
370.967958
20
2.102481
30
0.0
0
VERTEX
100
AcDbVertex
100
AcDb2dVertex
8
Layer01
10
371.500951
20
2.100302
30
0.0
0
VERTEX
100
AcDbVertex
100
AcDb2dVertex
8
Layer01
10
372.033944
20
2.097981
30
0.0
0
VERTEX
100
AcDbVertex
100
AcDb2dVertex
8
Layer01
10
372.566937
20
2.095508
30
0.0
0
VERTEX
100
AcDbVertex
100
AcDb2dVertex
8
Layer01
10
373.09993
20
2.092878
30
0.0
0
VERTEX
100
AcDbVertex
100
AcDb2dVertex
8
Layer01
10
373.632987
20
2.089962
30
0.0
0
VERTEX
100
AcDbVertex
100
AcDb2dVertex
8
Layer01
10
374.16598
20
2.086889
30
0.0
0
VERTEX
100
AcDbVertex
100
AcDb2dVertex
8
Layer01
10
374.698973
20
2.083664
30
0.0
0
VERTEX
100
AcDbVertex
100
AcDb2dVertex
8
Layer01
10
375.231966
20
2.080294
30
0.0
0
VERTEX
100
AcDbVertex
100
AcDb2dVertex
8
Layer01
10
375.764959
20
2.076786
30
0.0
0
VERTEX
100
AcDbVertex
100
AcDb2dVertex
8
Layer01
10
376.297952
20
2.07315
30
0.0
0
VERTEX
100
AcDbVertex
100
AcDb2dVertex
8
Layer01
10
376.830946
20
2.069393
30
0.0
0
VERTEX
100
AcDbVertex
100
AcDb2dVertex
8
Layer01
10
377.363939
20
2.065525
30
0.0
0
VERTEX
100
AcDbVertex
100
AcDb2dVertex
8
Layer01
10
377.896932
20
2.061553
30
0.0
0
VERTEX
100
AcDbVertex
100
AcDb2dVertex
8
Layer01
10
378.429925
20
2.057487
30
0.0
0
VERTEX
100
AcDbVertex
100
AcDb2dVertex
8
Layer01
10
378.962982
20
2.053416
30
0.0
0
VERTEX
100
AcDbVertex
100
AcDb2dVertex
8
Layer01
10
379.495975
20
2.04926
30
0.0
0
VERTEX
100
AcDbVertex
100
AcDb2dVertex
8
Layer01
10
380.028968
20
2.045019
30
0.0
0
VERTEX
100
AcDbVertex
100
AcDb2dVertex
8
Layer01
10
380.561961
20
2.040693
30
0.0
0
VERTEX
100
AcDbVertex
100
AcDb2dVertex
8
Layer01
10
381.094954
20
2.036283
30
0.0
0
VERTEX
100
AcDbVertex
100
AcDb2dVertex
8
Layer01
10
381.627947
20
2.031787
30
0.0
0
VERTEX
100
AcDbVertex
100
AcDb2dVertex
8
Layer01
10
382.160941
20
2.027205
30
0.0
0
VERTEX
100
AcDbVertex
100
AcDb2dVertex
8
Layer01
10
382.693934
20
2.022535
30
0.0
0
VERTEX
100
AcDbVertex
100
AcDb2dVertex
8
Layer01
10
383.226927
20
2.017777
30
0.0
0
VERTEX
100
AcDbVertex
100
AcDb2dVertex
8
Layer01
10
383.75992
20
2.012929
30
0.0
0
VERTEX
100
AcDbVertex
100
AcDb2dVertex
8
Layer01
10
384.293008
20
2.007966
30
0.0
0
VERTEX
100
AcDbVertex
100
AcDb2dVertex
8
Layer01
10
384.826002
20
2.002914
30
0.0
0
VERTEX
100
AcDbVertex
100
AcDb2dVertex
8
Layer01
10
385.358995
20
1.997771
30
0.0
0
VERTEX
100
AcDbVertex
100
AcDb2dVertex
8
Layer01
10
385.891988
20
1.992537
30
0.0
0
VERTEX
100
AcDbVertex
100
AcDb2dVertex
8
Layer01
10
386.424981
20
1.987213
30
0.0
0
VERTEX
100
AcDbVertex
100
AcDb2dVertex
8
Layer01
10
386.957974
20
1.9818
30
0.0
0
VERTEX
100
AcDbVertex
100
AcDb2dVertex
8
Layer01
10
387.490967
20
1.976297
30
0.0
0
VERTEX
100
AcDbVertex
100
AcDb2dVertex
8
Layer01
10
388.02396
20
1.970705
30
0.0
0
VERTEX
100
AcDbVertex
100
AcDb2dVertex
8
Layer01
10
388.556953
20
1.965024
30
0.0
0
VERTEX
100
AcDbVertex
100
AcDb2dVertex
8
Layer01
10
389.089947
20
1.959255
30
0.0
0
VERTEX
100
AcDbVertex
100
AcDb2dVertex
8
Layer01
10
389.623003
20
1.9534
30
0.0
0
VERTEX
100
AcDbVertex
100
AcDb2dVertex
8
Layer01
10
390.155996
20
1.947458
30
0.0
0
VERTEX
100
AcDbVertex
100
AcDb2dVertex
8
Layer01
10
390.68899
20
1.941428
30
0.0
0
VERTEX
100
AcDbVertex
100
AcDb2dVertex
8
Layer01
10
391.221983
20
1.935311
30
0.0
0
VERTEX
100
AcDbVertex
100
AcDb2dVertex
8
Layer01
10
391.754976
20
1.929106
30
0.0
0
VERTEX
100
AcDbVertex
100
AcDb2dVertex
8
Layer01
10
392.287969
20
1.922815
30
0.0
0
VERTEX
100
AcDbVertex
100
AcDb2dVertex
8
Layer01
10
392.820962
20
1.916438
30
0.0
0
VERTEX
100
AcDbVertex
100
AcDb2dVertex
8
Layer01
10
393.353955
20
1.909974
30
0.0
0
VERTEX
100
AcDbVertex
100
AcDb2dVertex
8
Layer01
10
393.886948
20
1.903424
30
0.0
0
VERTEX
100
AcDbVertex
100
AcDb2dVertex
8
Layer01
10
394.419942
20
1.896788
30
0.0
0
VERTEX
100
AcDbVertex
100
AcDb2dVertex
8
Layer01
10
394.952998
20
1.890064
30
0.0
0
VERTEX
100
AcDbVertex
100
AcDb2dVertex
8
Layer01
10
395.485991
20
1.883256
30
0.0
0
VERTEX
100
AcDbVertex
100
AcDb2dVertex
8
Layer01
10
396.018984
20
1.876363
30
0.0
0
VERTEX
100
AcDbVertex
100
AcDb2dVertex
8
Layer01
10
396.551978
20
1.869386
30
0.0
0
VERTEX
100
AcDbVertex
100
AcDb2dVertex
8
Layer01
10
397.084971
20
1.862326
30
0.0
0
VERTEX
100
AcDbVertex
100
AcDb2dVertex
8
Layer01
10
397.617964
20
1.855183
30
0.0
0
VERTEX
100
AcDbVertex
100
AcDb2dVertex
8
Layer01
10
398.150957
20
1.847957
30
0.0
0
VERTEX
100
AcDbVertex
100
AcDb2dVertex
8
Layer01
10
398.68395
20
1.84065
30
0.0
0
VERTEX
100
AcDbVertex
100
AcDb2dVertex
8
Layer01
10
399.216943
20
1.833262
30
0.0
0
VERTEX
100
AcDbVertex
100
AcDb2dVertex
8
Layer01
10
399.749936
20
1.825792
30
0.0
0
VERTEX
100
AcDbVertex
100
AcDb2dVertex
8
Layer01
10
400.282993
20
1.818243
30
0.0
0
VERTEX
100
AcDbVertex
100
AcDb2dVertex
8
Layer01
10
400.815986
20
1.810616
30
0.0
0
VERTEX
100
AcDbVertex
100
AcDb2dVertex
8
Layer01
10
401.348979
20
1.802909
30
0.0
0
VERTEX
100
AcDbVertex
100
AcDb2dVertex
8
Layer01
10
401.881973
20
1.795125
30
0.0
0
VERTEX
100
AcDbVertex
100
AcDb2dVertex
8
Layer01
10
402.414966
20
1.787262
30
0.0
0
VERTEX
100
AcDbVertex
100
AcDb2dVertex
8
Layer01
10
402.947959
20
1.779322
30
0.0
0
VERTEX
100
AcDbVertex
100
AcDb2dVertex
8
Layer01
10
403.480952
20
1.771306
30
0.0
0
VERTEX
100
AcDbVertex
100
AcDb2dVertex
8
Layer01
10
404.013945
20
1.763213
30
0.0
0
VERTEX
100
AcDbVertex
100
AcDb2dVertex
8
Layer01
10
404.546938
20
1.755045
30
0.0
0
VERTEX
100
AcDbVertex
100
AcDb2dVertex
8
Layer01
10
405.079931
20
1.746802
30
0.0
0
VERTEX
100
AcDbVertex
100
AcDb2dVertex
8
Layer01
10
405.612988
20
1.738483
30
0.0
0
VERTEX
100
AcDbVertex
100
AcDb2dVertex
8
Layer01
10
406.145981
20
1.730092
30
0.0
0
VERTEX
100
AcDbVertex
100
AcDb2dVertex
8
Layer01
10
406.678974
20
1.721628
30
0.0
0
VERTEX
100
AcDbVertex
100
AcDb2dVertex
8
Layer01
10
407.211967
20
1.713092
30
0.0
0
VERTEX
100
AcDbVertex
100
AcDb2dVertex
8
Layer01
10
407.744961
20
1.704484
30
0.0
0
VERTEX
100
AcDbVertex
100
AcDb2dVertex
8
Layer01
10
408.277954
20
1.695806
30
0.0
0
VERTEX
100
AcDbVertex
100
AcDb2dVertex
8
Layer01
10
408.810947
20
1.687058
30
0.0
0
VERTEX
100
AcDbVertex
100
AcDb2dVertex
8
Layer01
10
409.34394
20
1.678241
30
0.0
0
VERTEX
100
AcDbVertex
100
AcDb2dVertex
8
Layer01
10
409.876933
20
1.669356
30
0.0
0
VERTEX
100
AcDbVertex
100
AcDb2dVertex
8
Layer01
10
410.409926
20
1.660403
30
0.0
0
VERTEX
100
AcDbVertex
100
AcDb2dVertex
8
Layer01
10
410.942983
20
1.651382
30
0.0
0
VERTEX
100
AcDbVertex
100
AcDb2dVertex
8
Layer01
10
411.475976
20
1.642296
30
0.0
0
VERTEX
100
AcDbVertex
100
AcDb2dVertex
8
Layer01
10
412.008969
20
1.633145
30
0.0
0
VERTEX
100
AcDbVertex
100
AcDb2dVertex
8
Layer01
10
412.541962
20
1.623931
30
0.0
0
VERTEX
100
AcDbVertex
100
AcDb2dVertex
8
Layer01
10
413.074956
20
1.614652
30
0.0
0
VERTEX
100
AcDbVertex
100
AcDb2dVertex
8
Layer01
10
413.607949
20
1.605311
30
0.0
0
VERTEX
100
AcDbVertex
100
AcDb2dVertex
8
Layer01
10
414.140942
20
1.595909
30
0.0
0
VERTEX
100
AcDbVertex
100
AcDb2dVertex
8
Layer01
10
414.673935
20
1.586446
30
0.0
0
VERTEX
100
AcDbVertex
100
AcDb2dVertex
8
Layer01
10
415.206928
20
1.576923
30
0.0
0
VERTEX
100
AcDbVertex
100
AcDb2dVertex
8
Layer01
10
415.739921
20
1.567341
30
0.0
0
VERTEX
100
AcDbVertex
100
AcDb2dVertex
8
Layer01
10
416.272978
20
1.55773
30
0.0
0
VERTEX
100
AcDbVertex
100
AcDb2dVertex
8
Layer01
10
416.805971
20
1.548061
30
0.0
0
VERTEX
100
AcDbVertex
100
AcDb2dVertex
8
Layer01
10
417.338964
20
1.538331
30
0.0
0
VERTEX
100
AcDbVertex
100
AcDb2dVertex
8
Layer01
10
417.871957
20
1.528539
30
0.0
0
VERTEX
100
AcDbVertex
100
AcDb2dVertex
8
Layer01
10
418.40495
20
1.518685
30
0.0
0
VERTEX
100
AcDbVertex
100
AcDb2dVertex
8
Layer01
10
418.937944
20
1.508767
30
0.0
0
VERTEX
100
AcDbVertex
100
AcDb2dVertex
8
Layer01
10
419.470937
20
1.498785
30
0.0
0
VERTEX
100
AcDbVertex
100
AcDb2dVertex
8
Layer01
10
420.00393
20
1.488741
30
0.0
0
VERTEX
100
AcDbVertex
100
AcDb2dVertex
8
Layer01
10
420.536923
20
1.478635
30
0.0
0
VERTEX
100
AcDbVertex
100
AcDb2dVertex
8
Layer01
10
421.069916
20
1.46847
30
0.0
0
VERTEX
100
AcDbVertex
100
AcDb2dVertex
8
Layer01
10
421.603005
20
1.458136
30
0.0
0
VERTEX
100
AcDbVertex
100
AcDb2dVertex
8
Layer01
10
422.135998
20
1.447759
30
0.0
0
VERTEX
100
AcDbVertex
100
AcDb2dVertex
8
Layer01
10
422.668991
20
1.437348
30
0.0
0
VERTEX
100
AcDbVertex
100
AcDb2dVertex
8
Layer01
10
423.201984
20
1.426918
30
0.0
0
VERTEX
100
AcDbVertex
100
AcDb2dVertex
8
Layer01
10
423.734977
20
1.416482
30
0.0
0
VERTEX
100
AcDbVertex
100
AcDb2dVertex
8
Layer01
10
424.26797
20
1.406052
30
0.0
0
VERTEX
100
AcDbVertex
100
AcDb2dVertex
8
Layer01
10
424.800963
20
1.395641
30
0.0
0
VERTEX
100
AcDbVertex
100
AcDb2dVertex
8
Layer01
10
425.333957
20
1.385261
30
0.0
0
VERTEX
100
AcDbVertex
100
AcDb2dVertex
8
Layer01
10
425.86695
20
1.374924
30
0.0
0
VERTEX
100
AcDbVertex
100
AcDb2dVertex
8
Layer01
10
426.399943
20
1.364641
30
0.0
0
VERTEX
100
AcDbVertex
100
AcDb2dVertex
8
Layer01
10
426.932999
20
1.354565
30
0.0
0
VERTEX
100
AcDbVertex
100
AcDb2dVertex
8
Layer01
10
427.465993
20
1.344549
30
0.0
0
VERTEX
100
AcDbVertex
100
AcDb2dVertex
8
Layer01
10
427.998986
20
1.334588
30
0.0
0
VERTEX
100
AcDbVertex
100
AcDb2dVertex
8
Layer01
10
428.531979
20
1.324675
30
0.0
0
VERTEX
100
AcDbVertex
100
AcDb2dVertex
8
Layer01
10
429.064972
20
1.314805
30
0.0
0
VERTEX
100
AcDbVertex
100
AcDb2dVertex
8
Layer01
10
429.597965
20
1.30497
30
0.0
0
VERTEX
100
AcDbVertex
100
AcDb2dVertex
8
Layer01
10
430.130958
20
1.295163
30
0.0
0
VERTEX
100
AcDbVertex
100
AcDb2dVertex
8
Layer01
10
430.663951
20
1.285374
30
0.0
0
VERTEX
100
AcDbVertex
100
AcDb2dVertex
8
Layer01
10
431.196945
20
1.275597
30
0.0
0
VERTEX
100
AcDbVertex
100
AcDb2dVertex
8
Layer01
10
431.729938
20
1.265823
30
0.0
0
VERTEX
100
AcDbVertex
100
AcDb2dVertex
8
Layer01
10
432.262994
20
1.255959
30
0.0
0
VERTEX
100
AcDbVertex
100
AcDb2dVertex
8
Layer01
10
432.795988
20
1.246091
30
0.0
0
VERTEX
100
AcDbVertex
100
AcDb2dVertex
8
Layer01
10
433.328981
20
1.236217
30
0.0
0
VERTEX
100
AcDbVertex
100
AcDb2dVertex
8
Layer01
10
433.861974
20
1.226336
30
0.0
0
VERTEX
100
AcDbVertex
100
AcDb2dVertex
8
Layer01
10
434.394967
20
1.216449
30
0.0
0
VERTEX
100
AcDbVertex
100
AcDb2dVertex
8
Layer01
10
434.92796
20
1.206557
30
0.0
0
VERTEX
100
AcDbVertex
100
AcDb2dVertex
8
Layer01
10
435.460953
20
1.19666
30
0.0
0
VERTEX
100
AcDbVertex
100
AcDb2dVertex
8
Layer01
10
435.993946
20
1.186759
30
0.0
0
VERTEX
100
AcDbVertex
100
AcDb2dVertex
8
Layer01
10
436.52694
20
1.176856
30
0.0
0
VERTEX
100
AcDbVertex
100
AcDb2dVertex
8
Layer01
10
437.059933
20
1.166951
30
0.0
0
VERTEX
100
AcDbVertex
100
AcDb2dVertex
8
Layer01
10
437.592989
20
1.157063
30
0.0
0
VERTEX
100
AcDbVertex
100
AcDb2dVertex
8
Layer01
10
438.125982
20
1.147176
30
0.0
0
VERTEX
100
AcDbVertex
100
AcDb2dVertex
8
Layer01
10
438.658976
20
1.137289
30
0.0
0
VERTEX
100
AcDbVertex
100
AcDb2dVertex
8
Layer01
10
439.191969
20
1.127402
30
0.0
0
VERTEX
100
AcDbVertex
100
AcDb2dVertex
8
Layer01
10
439.724962
20
1.117515
30
0.0
0
VERTEX
100
AcDbVertex
100
AcDb2dVertex
8
Layer01
10
440.257955
20
1.107628
30
0.0
0
VERTEX
100
AcDbVertex
100
AcDb2dVertex
8
Layer01
10
440.790948
20
1.097741
30
0.0
0
VERTEX
100
AcDbVertex
100
AcDb2dVertex
8
Layer01
10
441.323941
20
1.087854
30
0.0
0
VERTEX
100
AcDbVertex
100
AcDb2dVertex
8
Layer01
10
441.856934
20
1.077967
30
0.0
0
VERTEX
100
AcDbVertex
100
AcDb2dVertex
8
Layer01
10
442.389928
20
1.06808
30
0.0
0
VERTEX
100
AcDbVertex
100
AcDb2dVertex
8
Layer01
10
442.922984
20
1.058191
30
0.0
0
VERTEX
100
AcDbVertex
100
AcDb2dVertex
8
Layer01
10
443.455977
20
1.048303
30
0.0
0
VERTEX
100
AcDbVertex
100
AcDb2dVertex
8
Layer01
10
443.988971
20
1.038415
30
0.0
0
VERTEX
100
AcDbVertex
100
AcDb2dVertex
8
Layer01
10
444.521964
20
1.028527
30
0.0
0
VERTEX
100
AcDbVertex
100
AcDb2dVertex
8
Layer01
10
445.054957
20
1.018639
30
0.0
0
VERTEX
100
AcDbVertex
100
AcDb2dVertex
8
Layer01
10
445.58795
20
1.008752
30
0.0
0
VERTEX
100
AcDbVertex
100
AcDb2dVertex
8
Layer01
10
446.120943
20
0.998865
30
0.0
0
VERTEX
100
AcDbVertex
100
AcDb2dVertex
8
Layer01
10
446.653936
20
0.988979
30
0.0
0
VERTEX
100
AcDbVertex
100
AcDb2dVertex
8
Layer01
10
447.186929
20
0.979094
30
0.0
0
VERTEX
100
AcDbVertex
100
AcDb2dVertex
8
Layer01
10
447.719922
20
0.969209
30
0.0
0
VERTEX
100
AcDbVertex
100
AcDb2dVertex
8
Layer01
10
448.252979
20
0.959325
30
0.0
0
VERTEX
100
AcDbVertex
100
AcDb2dVertex
8
Layer01
10
448.785972
20
0.949443
30
0.0
0
VERTEX
100
AcDbVertex
100
AcDb2dVertex
8
Layer01
10
449.318965
20
0.939561
30
0.0
0
VERTEX
100
AcDbVertex
100
AcDb2dVertex
8
Layer01
10
449.851959
20
0.92968
30
0.0
0
VERTEX
100
AcDbVertex
100
AcDb2dVertex
8
Layer01
10
450.384952
20
0.919799
30
0.0
0
VERTEX
100
AcDbVertex
100
AcDb2dVertex
8
Layer01
10
450.917945
20
0.909918
30
0.0
0
VERTEX
100
AcDbVertex
100
AcDb2dVertex
8
Layer01
10
451.450938
20
0.900037
30
0.0
0
VERTEX
100
AcDbVertex
100
AcDb2dVertex
8
Layer01
10
451.983931
20
0.890155
30
0.0
0
VERTEX
100
AcDbVertex
100
AcDb2dVertex
8
Layer01
10
452.516924
20
0.880273
30
0.0
0
VERTEX
100
AcDbVertex
100
AcDb2dVertex
8
Layer01
10
453.049917
20
0.870391
30
0.0
0
VERTEX
100
AcDbVertex
100
AcDb2dVertex
8
Layer01
10
453.583006
20
0.860504
30
0.0
0
VERTEX
100
AcDbVertex
100
AcDb2dVertex
8
Layer01
10
454.115999
20
0.850619
30
0.0
0
VERTEX
100
AcDbVertex
100
AcDb2dVertex
8
Layer01
10
454.648992
20
0.840733
30
0.0
0
VERTEX
100
AcDbVertex
100
AcDb2dVertex
8
Layer01
10
455.181985
20
0.830846
30
0.0
0
VERTEX
100
AcDbVertex
100
AcDb2dVertex
8
Layer01
10
455.714978
20
0.820959
30
0.0
0
VERTEX
100
AcDbVertex
100
AcDb2dVertex
8
Layer01
10
456.247972
20
0.811071
30
0.0
0
VERTEX
100
AcDbVertex
100
AcDb2dVertex
8
Layer01
10
456.780965
20
0.801183
30
0.0
0
VERTEX
100
AcDbVertex
100
AcDb2dVertex
8
Layer01
10
457.313958
20
0.791295
30
0.0
0
VERTEX
100
AcDbVertex
100
AcDb2dVertex
8
Layer01
10
457.846951
20
0.781407
30
0.0
0
VERTEX
100
AcDbVertex
100
AcDb2dVertex
8
Layer01
10
458.379944
20
0.771519
30
0.0
0
VERTEX
100
AcDbVertex
100
AcDb2dVertex
8
Layer01
10
458.913001
20
0.761629
30
0.0
0
VERTEX
100
AcDbVertex
100
AcDb2dVertex
8
Layer01
10
459.445994
20
0.751741
30
0.0
0
VERTEX
100
AcDbVertex
100
AcDb2dVertex
8
Layer01
10
459.978987
20
0.741852
30
0.0
0
VERTEX
100
AcDbVertex
100
AcDb2dVertex
8
Layer01
10
460.51198
20
0.731965
30
0.0
0
VERTEX
100
AcDbVertex
100
AcDb2dVertex
8
Layer01
10
461.044973
20
0.722077
30
0.0
0
VERTEX
100
AcDbVertex
100
AcDb2dVertex
8
Layer01
10
461.577966
20
0.71219
30
0.0
0
VERTEX
100
AcDbVertex
100
AcDb2dVertex
8
Layer01
10
462.11096
20
0.702303
30
0.0
0
VERTEX
100
AcDbVertex
100
AcDb2dVertex
8
Layer01
10
462.643953
20
0.692417
30
0.0
0
VERTEX
100
AcDbVertex
100
AcDb2dVertex
8
Layer01
10
463.176946
20
0.682532
30
0.0
0
VERTEX
100
AcDbVertex
100
AcDb2dVertex
8
Layer01
10
463.709939
20
0.672647
30
0.0
0
VERTEX
100
AcDbVertex
100
AcDb2dVertex
8
Layer01
10
464.242996
20
0.662764
30
0.0
0
VERTEX
100
AcDbVertex
100
AcDb2dVertex
8
Layer01
10
464.775989
20
0.652882
30
0.0
0
VERTEX
100
AcDbVertex
100
AcDb2dVertex
8
Layer01
10
465.308982
20
0.643
30
0.0
0
VERTEX
100
AcDbVertex
100
AcDb2dVertex
8
Layer01
10
465.841975
20
0.633119
30
0.0
0
VERTEX
100
AcDbVertex
100
AcDb2dVertex
8
Layer01
10
466.374968
20
0.623238
30
0.0
0
VERTEX
100
AcDbVertex
100
AcDb2dVertex
8
Layer01
10
466.907961
20
0.613357
30
0.0
0
VERTEX
100
AcDbVertex
100
AcDb2dVertex
8
Layer01
10
467.440955
20
0.603476
30
0.0
0
VERTEX
100
AcDbVertex
100
AcDb2dVertex
8
Layer01
10
467.973948
20
0.593594
30
0.0
0
VERTEX
100
AcDbVertex
100
AcDb2dVertex
8
Layer01
10
468.506941
20
0.583712
30
0.0
0
VERTEX
100
AcDbVertex
100
AcDb2dVertex
8
Layer01
10
469.039934
20
0.573829
30
0.0
0
VERTEX
100
AcDbVertex
100
AcDb2dVertex
8
Layer01
10
469.572991
20
0.563999
30
0.0
0
VERTEX
100
AcDbVertex
100
AcDb2dVertex
8
Layer01
10
470.105984
20
0.554165
30
0.0
0
VERTEX
100
AcDbVertex
100
AcDb2dVertex
8
Layer01
10
470.638977
20
0.544322
30
0.0
0
VERTEX
100
AcDbVertex
100
AcDb2dVertex
8
Layer01
10
471.17197
20
0.534467
30
0.0
0
VERTEX
100
AcDbVertex
100
AcDb2dVertex
8
Layer01
10
471.704963
20
0.524596
30
0.0
0
VERTEX
100
AcDbVertex
100
AcDb2dVertex
8
Layer01
10
472.237956
20
0.514707
30
0.0
0
VERTEX
100
AcDbVertex
100
AcDb2dVertex
8
Layer01
10
472.770949
20
0.504799
30
0.0
0
VERTEX
100
AcDbVertex
100
AcDb2dVertex
8
Layer01
10
473.303943
20
0.494871
30
0.0
0
VERTEX
100
AcDbVertex
100
AcDb2dVertex
8
Layer01
10
473.836936
20
0.484923
30
0.0
0
VERTEX
100
AcDbVertex
100
AcDb2dVertex
8
Layer01
10
474.369929
20
0.474958
30
0.0
0
VERTEX
100
AcDbVertex
100
AcDb2dVertex
8
Layer01
10
474.902986
20
0.464859
30
0.0
0
VERTEX
100
AcDbVertex
100
AcDb2dVertex
8
Layer01
10
475.435979
20
0.454761
30
0.0
0
VERTEX
100
AcDbVertex
100
AcDb2dVertex
8
Layer01
10
475.968972
20
0.444681
30
0.0
0
VERTEX
100
AcDbVertex
100
AcDb2dVertex
8
Layer01
10
476.501965
20
0.434634
30
0.0
0
VERTEX
100
AcDbVertex
100
AcDb2dVertex
8
Layer01
10
477.034958
20
0.424639
30
0.0
0
VERTEX
100
AcDbVertex
100
AcDb2dVertex
8
Layer01
10
477.567951
20
0.414715
30
0.0
0
VERTEX
100
AcDbVertex
100
AcDb2dVertex
8
Layer01
10
478.100944
20
0.404882
30
0.0
0
VERTEX
100
AcDbVertex
100
AcDb2dVertex
8
Layer01
10
478.633937
20
0.395162
30
0.0
0
VERTEX
100
AcDbVertex
100
AcDb2dVertex
8
Layer01
10
479.166931
20
0.385574
30
0.0
0
VERTEX
100
AcDbVertex
100
AcDb2dVertex
8
Layer01
10
479.699924
20
0.376139
30
0.0
0
VERTEX
100
AcDbVertex
100
AcDb2dVertex
8
Layer01
10
480.23298
20
0.366874
30
0.0
0
VERTEX
100
AcDbVertex
100
AcDb2dVertex
8
Layer01
10
480.765974
20
0.357805
30
0.0
0
VERTEX
100
AcDbVertex
100
AcDb2dVertex
8
Layer01
10
481.298967
20
0.348954
30
0.0
0
VERTEX
100
AcDbVertex
100
AcDb2dVertex
8
Layer01
10
481.83196
20
0.34034
30
0.0
0
VERTEX
100
AcDbVertex
100
AcDb2dVertex
8
Layer01
10
482.364953
20
0.331983
30
0.0
0
VERTEX
100
AcDbVertex
100
AcDb2dVertex
8
Layer01
10
482.897946
20
0.323901
30
0.0
0
VERTEX
100
AcDbVertex
100
AcDb2dVertex
8
Layer01
10
483.430939
20
0.316111
30
0.0
0
VERTEX
100
AcDbVertex
100
AcDb2dVertex
8
Layer01
10
483.963932
20
0.308629
30
0.0
0
VERTEX
100
AcDbVertex
100
AcDb2dVertex
8
Layer01
10
484.496926
20
0.301469
30
0.0
0
VERTEX
100
AcDbVertex
100
AcDb2dVertex
8
Layer01
10
485.029919
20
0.294643
30
0.0
0
VERTEX
100
AcDbVertex
100
AcDb2dVertex
8
Layer01
10
485.563007
20
0.288351
30
0.0
0
VERTEX
100
AcDbVertex
100
AcDb2dVertex
8
Layer01
10
486.096
20
0.282397
30
0.0
0
VERTEX
100
AcDbVertex
100
AcDb2dVertex
8
Layer01
10
486.628993
20
0.276772
30
0.0
0
VERTEX
100
AcDbVertex
100
AcDb2dVertex
8
Layer01
10
487.161987
20
0.271466
30
0.0
0
VERTEX
100
AcDbVertex
100
AcDb2dVertex
8
Layer01
10
487.69498
20
0.266468
30
0.0
0
VERTEX
100
AcDbVertex
100
AcDb2dVertex
8
Layer01
10
488.227973
20
0.261765
30
0.0
0
VERTEX
100
AcDbVertex
100
AcDb2dVertex
8
Layer01
10
488.760966
20
0.257345
30
0.0
0
VERTEX
100
AcDbVertex
100
AcDb2dVertex
8
Layer01
10
489.293959
20
0.253196
30
0.0
0
VERTEX
100
AcDbVertex
100
AcDb2dVertex
8
Layer01
10
489.826952
20
0.249305
30
0.0
0
VERTEX
100
AcDbVertex
100
AcDb2dVertex
8
Layer01
10
490.359945
20
0.24566
30
0.0
0
VERTEX
100
AcDbVertex
100
AcDb2dVertex
8
Layer01
10
490.893002
20
0.242085
30
0.0
0
VERTEX
100
AcDbVertex
100
AcDb2dVertex
8
Layer01
10
491.425995
20
0.23875
30
0.0
0
VERTEX
100
AcDbVertex
100
AcDb2dVertex
8
Layer01
10
491.958988
20
0.235658
30
0.0
0
VERTEX
100
AcDbVertex
100
AcDb2dVertex
8
Layer01
10
492.491981
20
0.232815
30
0.0
0
VERTEX
100
AcDbVertex
100
AcDb2dVertex
8
Layer01
10
493.024975
20
0.230228
30
0.0
0
VERTEX
100
AcDbVertex
100
AcDb2dVertex
8
Layer01
10
493.557968
20
0.227904
30
0.0
0
VERTEX
100
AcDbVertex
100
AcDb2dVertex
8
Layer01
10
494.090961
20
0.225851
30
0.0
0
VERTEX
100
AcDbVertex
100
AcDb2dVertex
8
Layer01
10
494.623954
20
0.224077
30
0.0
0
VERTEX
100
AcDbVertex
100
AcDb2dVertex
8
Layer01
10
495.156947
20
0.222593
30
0.0
0
VERTEX
100
AcDbVertex
100
AcDb2dVertex
8
Layer01
10
495.68994
20
0.221408
30
0.0
0
VERTEX
100
AcDbVertex
100
AcDb2dVertex
8
Layer01
10
496.222997
20
0.220576
30
0.0
0
VERTEX
100
AcDbVertex
100
AcDb2dVertex
8
Layer01
10
496.75599
20
0.22006
30
0.0
0
VERTEX
100
AcDbVertex
100
AcDb2dVertex
8
Layer01
10
497.288983
20
0.219864
30
0.0
0
VERTEX
100
AcDbVertex
100
AcDb2dVertex
8
Layer01
10
497.821976
20
0.219997
30
0.0
0
VERTEX
100
AcDbVertex
100
AcDb2dVertex
8
Layer01
10
498.35497
20
0.220465
30
0.0
0
VERTEX
100
AcDbVertex
100
AcDb2dVertex
8
Layer01
10
498.887963
20
0.221275
30
0.0
0
VERTEX
100
AcDbVertex
100
AcDb2dVertex
8
Layer01
10
499.420956
20
0.222434
30
0.0
0
VERTEX
100
AcDbVertex
100
AcDb2dVertex
8
Layer01
10
499.953949
20
0.223947
30
0.0
0
VERTEX
100
AcDbVertex
100
AcDb2dVertex
8
Layer01
10
500.486942
20
0.225824
30
0.0
0
VERTEX
100
AcDbVertex
100
AcDb2dVertex
8
Layer01
10
501.019935
20
0.22807
30
0.0
0
VERTEX
100
AcDbVertex
100
AcDb2dVertex
8
Layer01
10
501.552992
20
0.230692
30
0.0
0
VERTEX
100
AcDbVertex
100
AcDb2dVertex
8
Layer01
10
502.085985
20
0.233698
30
0.0
0
VERTEX
100
AcDbVertex
100
AcDb2dVertex
8
Layer01
10
502.618978
20
0.237096
30
0.0
0
VERTEX
100
AcDbVertex
100
AcDb2dVertex
8
Layer01
10
503.151971
20
0.240894
30
0.0
0
VERTEX
100
AcDbVertex
100
AcDb2dVertex
8
Layer01
10
503.684964
20
0.2451
30
0.0
0
VERTEX
100
AcDbVertex
100
AcDb2dVertex
8
Layer01
10
504.217958
20
0.249721
30
0.0
0
VERTEX
100
AcDbVertex
100
AcDb2dVertex
8
Layer01
10
504.750951
20
0.254766
30
0.0
0
VERTEX
100
AcDbVertex
100
AcDb2dVertex
8
Layer01
10
505.283944
20
0.260242
30
0.0
0
VERTEX
100
AcDbVertex
100
AcDb2dVertex
8
Layer01
10
505.816937
20
0.266158
30
0.0
0
VERTEX
100
AcDbVertex
100
AcDb2dVertex
8
Layer01
10
506.34993
20
0.272522
30
0.0
0
VERTEX
100
AcDbVertex
100
AcDb2dVertex
8
Layer01
10
506.882987
20
0.279345
30
0.0
0
VERTEX
100
AcDbVertex
100
AcDb2dVertex
8
Layer01
10
507.41598
20
0.286633
30
0.0
0
VERTEX
100
AcDbVertex
100
AcDb2dVertex
8
Layer01
10
507.948973
20
0.294392
30
0.0
0
VERTEX
100
AcDbVertex
100
AcDb2dVertex
8
Layer01
10
508.481966
20
0.302633
30
0.0
0
VERTEX
100
AcDbVertex
100
AcDb2dVertex
8
Layer01
10
509.014959
20
0.311363
30
0.0
0
VERTEX
100
AcDbVertex
100
AcDb2dVertex
8
Layer01
10
509.547952
20
0.32059
30
0.0
0
VERTEX
100
AcDbVertex
100
AcDb2dVertex
8
Layer01
10
510.080946
20
0.330324
30
0.0
0
VERTEX
100
AcDbVertex
100
AcDb2dVertex
8
Layer01
10
510.613939
20
0.340573
30
0.0
0
VERTEX
100
AcDbVertex
100
AcDb2dVertex
8
Layer01
10
511.146932
20
0.351346
30
0.0
0
VERTEX
100
AcDbVertex
100
AcDb2dVertex
8
Layer01
10
511.679925
20
0.362652
30
0.0
0
VERTEX
100
AcDbVertex
100
AcDb2dVertex
8
Layer01
10
512.212982
20
0.374498
30
0.0
0
VERTEX
100
AcDbVertex
100
AcDb2dVertex
8
Layer01
10
512.745975
20
0.386894
30
0.0
0
VERTEX
100
AcDbVertex
100
AcDb2dVertex
8
Layer01
10
513.278968
20
0.39985
30
0.0
0
VERTEX
100
AcDbVertex
100
AcDb2dVertex
8
Layer01
10
513.811961
20
0.413376
30
0.0
0
VERTEX
100
AcDbVertex
100
AcDb2dVertex
8
Layer01
10
514.344954
20
0.427482
30
0.0
0
VERTEX
100
AcDbVertex
100
AcDb2dVertex
8
Layer01
10
514.877947
20
0.442176
30
0.0
0
VERTEX
100
AcDbVertex
100
AcDb2dVertex
8
Layer01
10
515.410941
20
0.457469
30
0.0
0
VERTEX
100
AcDbVertex
100
AcDb2dVertex
8
Layer01
10
515.943934
20
0.473371
30
0.0
0
VERTEX
100
AcDbVertex
100
AcDb2dVertex
8
Layer01
10
516.476927
20
0.489891
30
0.0
0
VERTEX
100
AcDbVertex
100
AcDb2dVertex
8
Layer01
10
517.00992
20
0.50704
30
0.0
0
VERTEX
100
AcDbVertex
100
AcDb2dVertex
8
Layer01
10
522.873003
20
0.74749
30
0.0
0
VERTEX
100
AcDbVertex
100
AcDb2dVertex
8
Layer01
10
523.405996
20
0.781056
30
0.0
0
VERTEX
100
AcDbVertex
100
AcDb2dVertex
8
Layer01
10
523.93899
20
0.815541
30
0.0
0
VERTEX
100
AcDbVertex
100
AcDb2dVertex
8
Layer01
10
524.471983
20
0.850226
30
0.0
0
VERTEX
100
AcDbVertex
100
AcDb2dVertex
8
Layer01
10
525.004976
20
0.884217
30
0.0
0
VERTEX
100
AcDbVertex
100
AcDb2dVertex
8
Layer01
10
525.537969
20
0.91643
30
0.0
0
VERTEX
100
AcDbVertex
100
AcDb2dVertex
8
Layer01
10
526.070962
20
0.945572
30
0.0
0
VERTEX
100
AcDbVertex
100
AcDb2dVertex
8
Layer01
10
526.603955
20
0.970134
30
0.0
0
VERTEX
100
AcDbVertex
100
AcDb2dVertex
8
Layer01
10
527.136948
20
0.988376
30
0.0
0
VERTEX
100
AcDbVertex
100
AcDb2dVertex
8
Layer01
10
527.669942
20
0.998308
30
0.0
0
VERTEX
100
AcDbVertex
100
AcDb2dVertex
8
Layer01
10
528.202998
20
0.997684
30
0.0
0
VERTEX
100
AcDbVertex
100
AcDb2dVertex
8
Layer01
10
528.735991
20
0.983981
30
0.0
0
VERTEX
100
AcDbVertex
100
AcDb2dVertex
8
Layer01
10
529.268984
20
0.954393
30
0.0
0
VERTEX
100
AcDbVertex
100
AcDb2dVertex
8
Layer01
10
529.801978
20
0.90581
30
0.0
0
VERTEX
100
AcDbVertex
100
AcDb2dVertex
8
Layer01
10
530.334971
20
0.834811
30
0.0
0
VERTEX
100
AcDbVertex
100
AcDb2dVertex
8
Layer01
10
530.867964
20
0.737645
30
0.0
0
VERTEX
100
AcDbVertex
100
AcDb2dVertex
8
Layer01
10
531.400957
20
0.610217
30
0.0
0
VERTEX
100
AcDbVertex
100
AcDb2dVertex
8
Layer01
10
531.93395
20
0.448081
30
0.0
0
VERTEX
100
AcDbVertex
100
AcDb2dVertex
8
Layer01
10
532.466943
20
0.24642
30
0.0
0
VERTEX
100
AcDbVertex
100
AcDb2dVertex
8
Layer01
10
532.999936
20
0.000032
30
0.0
0
VERTEX
100
AcDbVertex
100
AcDb2dVertex
8
Layer01
10
533.0
20
0.0
30
0.0
0
SEQEND
0
POLYLINE
5
 502
100
AcDbEntity
8
AXIS
66
 1
100
AcDb2dPolyline
70
 0
0
VERTEX
100
AcDbVertex
100
AcDb2dVertex
8
AXIS
10
0.0
20
0.0
30
0.0
0
VERTEX
100
AcDbVertex
100
AcDb2dVertex
8
AXIS
10
533.0
20
0.0
30
0.0
0
SEQEND
0
POLYLINE
5
 503
100
AcDbEntity
8
COFFR
66
 1
100
AcDb2dPolyline
70
 0
0
VERTEX
100
AcDbVertex
100
AcDb2dVertex
8
COFFR
10
19.999984
20
47.667959
30
0.0
0
VERTEX
100
AcDbVertex
100
AcDb2dVertex
8
COFFR
10
19.999984
20
5.359582
30
0.0
0
SEQEND
0
POLYLINE
5
 503
100
AcDbEntity
8
COFFR
66
 1
100
AcDb2dPolyline
70
 0
0
VERTEX
100
AcDbVertex
100
AcDb2dVertex
8
COFFR
10
533.0
20
0.0
30
0.0
0
VERTEX
100
AcDbVertex
100
AcDb2dVertex
8
COFFR
10
533.0
20
0.0
30
0.0
0
SEQEND
0
POLYLINE
5
 503
100
AcDbEntity
8
COFFR
66
 1
100
AcDb2dPolyline
70
 0
0
VERTEX
100
AcDbVertex
100
AcDb2dVertex
8
COFFR
10
523.709137
20
4.003915
30
0.0
0
VERTEX
100
AcDbVertex
100
AcDb2dVertex
8
COFFR
10
522.378855
20
4.124429
30
0.0
0
VERTEX
100
AcDbVertex
100
AcDb2dVertex
8
COFFR
10
521.060576
20
4.289238
30
0.0
0
VERTEX
100
AcDbVertex
100
AcDb2dVertex
8
COFFR
10
519.745117
20
4.507031
30
0.0
0
VERTEX
100
AcDbVertex
100
AcDb2dVertex
8
COFFR
10
518.429369
20
4.776877
30
0.0
0
VERTEX
100
AcDbVertex
100
AcDb2dVertex
8
COFFR
10
517.107248
20
5.0788
30
0.0
0
VERTEX
100
AcDbVertex
100
AcDb2dVertex
8
COFFR
10
515.763983
20
5.346679
30
0.0
0
VERTEX
100
AcDbVertex
100
AcDb2dVertex
8
COFFR
10
514.434775
20
5.625198
30
0.0
0
VERTEX
100
AcDbVertex
100
AcDb2dVertex
8
COFFR
10
513.105666
20
5.914243
30
0.0
0
VERTEX
100
AcDbVertex
100
AcDb2dVertex
8
COFFR
10
511.776107
20
6.2124
30
0.0
0
VERTEX
100
AcDbVertex
100
AcDb2dVertex
8
COFFR
10
510.446633
20
6.519954
30
0.0
0
VERTEX
100
AcDbVertex
100
AcDb2dVertex
8
COFFR
10
509.116746
20
6.835602
30
0.0
0
VERTEX
100
AcDbVertex
100
AcDb2dVertex
8
COFFR
10
507.786918
20
7.159546
30
0.0
0
VERTEX
100
AcDbVertex
100
AcDb2dVertex
8
COFFR
10
506.456723
20
7.490632
30
0.0
0
VERTEX
100
AcDbVertex
100
AcDb2dVertex
8
COFFR
10
505.126577
20
7.829025
30
0.0
0
VERTEX
100
AcDbVertex
100
AcDb2dVertex
8
COFFR
10
503.796093
20
8.173662
30
0.0
0
VERTEX
100
AcDbVertex
100
AcDb2dVertex
8
COFFR
10
502.46564
20
8.524653
30
0.0
0
VERTEX
100
AcDbVertex
100
AcDb2dVertex
8
COFFR
10
501.134885
20
8.881048
30
0.0
0
VERTEX
100
AcDbVertex
100
AcDb2dVertex
8
COFFR
10
499.804156
20
9.242944
30
0.0
0
VERTEX
100
AcDbVertex
100
AcDb2dVertex
8
COFFR
10
498.473149
20
9.609462
30
0.0
0
VERTEX
100
AcDbVertex
100
AcDb2dVertex
8
COFFR
10
497.142152
20
9.980644
30
0.0
0
VERTEX
100
AcDbVertex
100
AcDb2dVertex
8
COFFR
10
495.810909
20
10.355721
30
0.0
0
VERTEX
100
AcDbVertex
100
AcDb2dVertex
8
COFFR
10
494.479673
20
10.734721
30
0.0
0
VERTEX
100
AcDbVertex
100
AcDb2dVertex
8
COFFR
10
493.148216
20
11.116946
30
0.0
0
VERTEX
100
AcDbVertex
100
AcDb2dVertex
8
COFFR
10
491.816753
20
11.502392
30
0.0
0
VERTEX
100
AcDbVertex
100
AcDb2dVertex
8
COFFR
10
490.485098
20
11.890451
30
0.0
0
VERTEX
100
AcDbVertex
100
AcDb2dVertex
8
COFFR
10
489.153438
20
12.281119
30
0.0
0
VERTEX
100
AcDbVertex
100
AcDb2dVertex
8
COFFR
10
487.821602
20
12.673839
30
0.0
0
VERTEX
100
AcDbVertex
100
AcDb2dVertex
8
COFFR
10
486.489749
20
13.068566
30
0.0
0
VERTEX
100
AcDbVertex
100
AcDb2dVertex
8
COFFR
10
485.157746
20
13.464829
30
0.0
0
VERTEX
100
AcDbVertex
100
AcDb2dVertex
8
COFFR
10
483.825729
20
13.862591
30
0.0
0
VERTEX
100
AcDbVertex
100
AcDb2dVertex
8
COFFR
10
482.493574
20
14.261419
30
0.0
0
VERTEX
100
AcDbVertex
100
AcDb2dVertex
8
COFFR
10
481.161394
20
14.66124
30
0.0
0
VERTEX
100
AcDbVertex
100
AcDb2dVertex
8
COFFR
10
479.829102
20
15.0617
30
0.0
0
VERTEX
100
AcDbVertex
100
AcDb2dVertex
8
COFFR
10
478.496787
20
15.462736
30
0.0
0
VERTEX
100
AcDbVertex
100
AcDb2dVertex
8
COFFR
10
477.164376
20
15.864041
30
0.0
0
VERTEX
100
AcDbVertex
100
AcDb2dVertex
8
COFFR
10
475.831926
20
16.265501
30
0.0
0
VERTEX
100
AcDbVertex
100
AcDb2dVertex
8
COFFR
10
474.499409
20
16.666904
30
0.0
0
VERTEX
100
AcDbVertex
100
AcDb2dVertex
8
COFFR
10
473.166856
20
17.068144
30
0.0
0
VERTEX
100
AcDbVertex
100
AcDb2dVertex
8
COFFR
10
471.834244
20
17.469032
30
0.0
0
VERTEX
100
AcDbVertex
100
AcDb2dVertex
8
COFFR
10
470.50159
20
17.86944
30
0.0
0
VERTEX
100
AcDbVertex
100
AcDb2dVertex
8
COFFR
10
469.168894
20
18.269239
30
0.0
0
VERTEX
100
AcDbVertex
100
AcDb2dVertex
8
COFFR
10
467.836164
20
18.668321
30
0.0
0
VERTEX
100
AcDbVertex
100
AcDb2dVertex
8
COFFR
10
466.503397
20
19.066573
30
0.0
0
VERTEX
100
AcDbVertex
100
AcDb2dVertex
8
COFFR
10
465.170589
20
19.463867
30
0.0
0
VERTEX
100
AcDbVertex
100
AcDb2dVertex
8
COFFR
10
463.83776
20
19.860141
30
0.0
0
VERTEX
100
AcDbVertex
100
AcDb2dVertex
8
COFFR
10
462.504898
20
20.25529
30
0.0
0
VERTEX
100
AcDbVertex
100
AcDb2dVertex
8
COFFR
10
461.17202
20
20.649263
30
0.0
0
VERTEX
100
AcDbVertex
100
AcDb2dVertex
8
COFFR
10
459.839104
20
21.041946
30
0.0
0
VERTEX
100
AcDbVertex
100
AcDb2dVertex
8
COFFR
10
458.506186
20
21.433329
30
0.0
0
VERTEX
100
AcDbVertex
100
AcDb2dVertex
8
COFFR
10
457.17324
20
21.823326
30
0.0
0
VERTEX
100
AcDbVertex
100
AcDb2dVertex
8
COFFR
10
455.840289
20
22.211925
30
0.0
0
VERTEX
100
AcDbVertex
100
AcDb2dVertex
8
COFFR
10
454.507306
20
22.599025
30
0.0
0
VERTEX
100
AcDbVertex
100
AcDb2dVertex
8
COFFR
10
453.174332
20
22.984653
30
0.0
0
VERTEX
100
AcDbVertex
100
AcDb2dVertex
8
COFFR
10
451.841333
20
23.368732
30
0.0
0
VERTEX
100
AcDbVertex
100
AcDb2dVertex
8
COFFR
10
450.508345
20
23.751296
30
0.0
0
VERTEX
100
AcDbVertex
100
AcDb2dVertex
8
COFFR
10
449.175334
20
24.132273
30
0.0
0
VERTEX
100
AcDbVertex
100
AcDb2dVertex
8
COFFR
10
447.842341
20
24.511722
30
0.0
0
VERTEX
100
AcDbVertex
100
AcDb2dVertex
8
COFFR
10
446.509338
20
24.889609
30
0.0
0
VERTEX
100
AcDbVertex
100
AcDb2dVertex
8
COFFR
10
445.176348
20
25.265976
30
0.0
0
VERTEX
100
AcDbVertex
100
AcDb2dVertex
8
COFFR
10
443.843333
20
25.640744
30
0.0
0
VERTEX
100
AcDbVertex
100
AcDb2dVertex
8
COFFR
10
442.510351
20
26.014016
30
0.0
0
VERTEX
100
AcDbVertex
100
AcDb2dVertex
8
COFFR
10
441.177348
20
26.385727
30
0.0
0
VERTEX
100
AcDbVertex
100
AcDb2dVertex
8
COFFR
10
439.844377
20
26.755979
30
0.0
0
VERTEX
100
AcDbVertex
100
AcDb2dVertex
8
COFFR
10
438.511389
20
27.124717
30
0.0
0
VERTEX
100
AcDbVertex
100
AcDb2dVertex
8
COFFR
10
437.178438
20
27.492054
30
0.0
0
VERTEX
100
AcDbVertex
100
AcDb2dVertex
8
COFFR
10
435.845626
20
27.858429
30
0.0
0
VERTEX
100
AcDbVertex
100
AcDb2dVertex
8
COFFR
10
434.512629
20
28.223256
30
0.0
0
VERTEX
100
AcDbVertex
100
AcDb2dVertex
8
COFFR
10
433.179567
20
28.586336
30
0.0
0
VERTEX
100
AcDbVertex
100
AcDb2dVertex
8
COFFR
10
431.846534
20
28.947762
30
0.0
0
VERTEX
100
AcDbVertex
100
AcDb2dVertex
8
COFFR
10
430.512951
20
29.305805
30
0.0
0
VERTEX
100
AcDbVertex
100
AcDb2dVertex
8
COFFR
10
429.180367
20
29.663627
30
0.0
0
VERTEX
100
AcDbVertex
100
AcDb2dVertex
8
COFFR
10
427.848239
20
30.022621
30
0.0
0
VERTEX
100
AcDbVertex
100
AcDb2dVertex
8
COFFR
10
426.516445
20
30.383819
30
0.0
0
VERTEX
100
AcDbVertex
100
AcDb2dVertex
8
COFFR
10
425.185915
20
30.751181
30
0.0
0
VERTEX
100
AcDbVertex
100
AcDb2dVertex
8
COFFR
10
423.854144
20
31.120755
30
0.0
0
VERTEX
100
AcDbVertex
100
AcDb2dVertex
8
COFFR
10
422.522066
20
31.49163
30
0.0
0
VERTEX
100
AcDbVertex
100
AcDb2dVertex
8
COFFR
10
421.189547
20
31.862428
30
0.0
0
VERTEX
100
AcDbVertex
100
AcDb2dVertex
8
COFFR
10
419.856069
20
32.230152
30
0.0
0
VERTEX
100
AcDbVertex
100
AcDb2dVertex
8
COFFR
10
418.523129
20
32.596533
30
0.0
0
VERTEX
100
AcDbVertex
100
AcDb2dVertex
8
COFFR
10
417.190182
20
32.961527
30
0.0
0
VERTEX
100
AcDbVertex
100
AcDb2dVertex
8
COFFR
10
415.857294
20
33.325316
30
0.0
0
VERTEX
100
AcDbVertex
100
AcDb2dVertex
8
COFFR
10
414.524604
20
33.688525
30
0.0
0
VERTEX
100
AcDbVertex
100
AcDb2dVertex
8
COFFR
10
413.191773
20
34.050703
30
0.0
0
VERTEX
100
AcDbVertex
100
AcDb2dVertex
8
COFFR
10
411.858923
20
34.411793
30
0.0
0
VERTEX
100
AcDbVertex
100
AcDb2dVertex
8
COFFR
10
410.526086
20
34.771838
30
0.0
0
VERTEX
100
AcDbVertex
100
AcDb2dVertex
8
COFFR
10
409.193231
20
35.130782
30
0.0
0
VERTEX
100
AcDbVertex
100
AcDb2dVertex
8
COFFR
10
407.860388
20
35.488659
30
0.0
0
VERTEX
100
AcDbVertex
100
AcDb2dVertex
8
COFFR
10
406.527524
20
35.845408
30
0.0
0
VERTEX
100
AcDbVertex
100
AcDb2dVertex
8
COFFR
10
405.194676
20
36.201076
30
0.0
0
VERTEX
100
AcDbVertex
100
AcDb2dVertex
8
COFFR
10
403.861816
20
36.555627
30
0.0
0
VERTEX
100
AcDbVertex
100
AcDb2dVertex
8
COFFR
10
402.528961
20
36.909075
30
0.0
0
VERTEX
100
AcDbVertex
100
AcDb2dVertex
8
COFFR
10
401.196085
20
37.261356
30
0.0
0
VERTEX
100
AcDbVertex
100
AcDb2dVertex
8
COFFR
10
399.863221
20
37.61251
30
0.0
0
VERTEX
100
AcDbVertex
100
AcDb2dVertex
8
COFFR
10
398.53034
20
37.962481
30
0.0
0
VERTEX
100
AcDbVertex
100
AcDb2dVertex
8
COFFR
10
397.197471
20
38.311305
30
0.0
0
VERTEX
100
AcDbVertex
100
AcDb2dVertex
8
COFFR
10
395.864584
20
38.658928
30
0.0
0
VERTEX
100
AcDbVertex
100
AcDb2dVertex
8
COFFR
10
394.531711
20
39.005394
30
0.0
0
VERTEX
100
AcDbVertex
100
AcDb2dVertex
8
COFFR
10
393.198828
20
39.350672
30
0.0
0
VERTEX
100
AcDbVertex
100
AcDb2dVertex
8
COFFR
10
391.865951
20
39.69478
30
0.0
0
VERTEX
100
AcDbVertex
100
AcDb2dVertex
8
COFFR
10
390.533056
20
40.037661
30
0.0
0
VERTEX
100
AcDbVertex
100
AcDb2dVertex
8
COFFR
10
389.200173
20
40.379357
30
0.0
0
VERTEX
100
AcDbVertex
100
AcDb2dVertex
8
COFFR
10
387.867278
20
40.719825
30
0.0
0
VERTEX
100
AcDbVertex
100
AcDb2dVertex
8
COFFR
10
386.534391
20
41.059093
30
0.0
0
VERTEX
100
AcDbVertex
100
AcDb2dVertex
8
COFFR
10
385.201488
20
41.397111
30
0.0
0
VERTEX
100
AcDbVertex
100
AcDb2dVertex
8
COFFR
10
383.868598
20
41.733918
30
0.0
0
VERTEX
100
AcDbVertex
100
AcDb2dVertex
8
COFFR
10
382.535705
20
42.069506
30
0.0
0
VERTEX
100
AcDbVertex
100
AcDb2dVertex
8
COFFR
10
381.202809
20
42.403864
30
0.0
0
VERTEX
100
AcDbVertex
100
AcDb2dVertex
8
COFFR
10
379.869894
20
42.736935
30
0.0
0
VERTEX
100
AcDbVertex
100
AcDb2dVertex
8
COFFR
10
378.536991
20
43.068758
30
0.0
0
VERTEX
100
AcDbVertex
100
AcDb2dVertex
8
COFFR
10
377.204051
20
43.399212
30
0.0
0
VERTEX
100
AcDbVertex
100
AcDb2dVertex
8
COFFR
10
375.87117
20
43.728486
30
0.0
0
VERTEX
100
AcDbVertex
100
AcDb2dVertex
8
COFFR
10
374.538291
20
44.056584
30
0.0
0
VERTEX
100
AcDbVertex
100
AcDb2dVertex
8
COFFR
10
373.205449
20
44.383621
30
0.0
0
VERTEX
100
AcDbVertex
100
AcDb2dVertex
8
COFFR
10
371.872654
20
44.709745
30
0.0
0
VERTEX
100
AcDbVertex
100
AcDb2dVertex
8
COFFR
10
370.539807
20
45.034792
30
0.0
0
VERTEX
100
AcDbVertex
100
AcDb2dVertex
8
COFFR
10
369.20692
20
45.358636
30
0.0
0
VERTEX
100
AcDbVertex
100
AcDb2dVertex
8
COFFR
10
367.874028
20
45.681265
30
0.0
0
VERTEX
100
AcDbVertex
100
AcDb2dVertex
8
COFFR
10
366.541066
20
46.002458
30
0.0
0
VERTEX
100
AcDbVertex
100
AcDb2dVertex
8
COFFR
10
365.208148
20
46.322354
30
0.0
0
VERTEX
100
AcDbVertex
100
AcDb2dVertex
8
COFFR
10
363.875207
20
46.640882
30
0.0
0
VERTEX
100
AcDbVertex
100
AcDb2dVertex
8
COFFR
10
362.542289
20
46.958113
30
0.0
0
VERTEX
100
AcDbVertex
100
AcDb2dVertex
8
COFFR
10
361.209364
20
47.274027
30
0.0
0
VERTEX
100
AcDbVertex
100
AcDb2dVertex
8
COFFR
10
359.876445
20
47.588639
30
0.0
0
VERTEX
100
AcDbVertex
100
AcDb2dVertex
8
COFFR
10
358.543502
20
47.901879
30
0.0
0
VERTEX
100
AcDbVertex
100
AcDb2dVertex
8
COFFR
10
357.210578
20
48.213802
30
0.0
0
VERTEX
100
AcDbVertex
100
AcDb2dVertex
8
COFFR
10
355.877635
20
48.524351
30
0.0
0
VERTEX
100
AcDbVertex
100
AcDb2dVertex
8
COFFR
10
354.544706
20
48.833568
30
0.0
0
VERTEX
100
AcDbVertex
100
AcDb2dVertex
8
COFFR
10
353.211754
20
49.141382
30
0.0
0
VERTEX
100
AcDbVertex
100
AcDb2dVertex
8
COFFR
10
351.87882
20
49.447851
30
0.0
0
VERTEX
100
AcDbVertex
100
AcDb2dVertex
8
COFFR
10
350.545868
20
49.752916
30
0.0
0
VERTEX
100
AcDbVertex
100
AcDb2dVertex
8
COFFR
10
349.21293
20
50.056624
30
0.0
0
VERTEX
100
AcDbVertex
100
AcDb2dVertex
8
COFFR
10
347.879972
20
50.358911
30
0.0
0
VERTEX
100
AcDbVertex
100
AcDb2dVertex
8
COFFR
10
346.547032
20
50.659834
30
0.0
0
VERTEX
100
AcDbVertex
100
AcDb2dVertex
8
COFFR
10
345.214078
20
50.959346
30
0.0
0
VERTEX
100
AcDbVertex
100
AcDb2dVertex
8
COFFR
10
343.881137
20
51.25749
30
0.0
0
VERTEX
100
AcDbVertex
100
AcDb2dVertex
8
COFFR
10
342.548168
20
51.554178
30
0.0
0
VERTEX
100
AcDbVertex
100
AcDb2dVertex
8
COFFR
10
341.215224
20
51.849491
30
0.0
0
VERTEX
100
AcDbVertex
100
AcDb2dVertex
8
COFFR
10
339.882255
20
52.143349
30
0.0
0
VERTEX
100
AcDbVertex
100
AcDb2dVertex
8
COFFR
10
338.549307
20
52.435817
30
0.0
0
VERTEX
100
AcDbVertex
100
AcDb2dVertex
8
COFFR
10
337.216329
20
52.726802
30
0.0
0
VERTEX
100
AcDbVertex
100
AcDb2dVertex
8
COFFR
10
335.883376
20
53.016382
30
0.0
0
VERTEX
100
AcDbVertex
100
AcDb2dVertex
8
COFFR
10
334.550398
20
53.304478
30
0.0
0
VERTEX
100
AcDbVertex
100
AcDb2dVertex
8
COFFR
10
333.217441
20
53.591158
30
0.0
0
VERTEX
100
AcDbVertex
100
AcDb2dVertex
8
COFFR
10
331.884457
20
53.876335
30
0.0
0
VERTEX
100
AcDbVertex
100
AcDb2dVertex
8
COFFR
10
330.551498
20
54.160088
30
0.0
0
VERTEX
100
AcDbVertex
100
AcDb2dVertex
8
COFFR
10
329.21851
20
54.442327
30
0.0
0
VERTEX
100
AcDbVertex
100
AcDb2dVertex
8
COFFR
10
327.885551
20
54.723143
30
0.0
0
VERTEX
100
AcDbVertex
100
AcDb2dVertex
8
COFFR
10
326.552567
20
55.002456
30
0.0
0
VERTEX
100
AcDbVertex
100
AcDb2dVertex
8
COFFR
10
325.219607
20
55.280343
30
0.0
0
VERTEX
100
AcDbVertex
100
AcDb2dVertex
8
COFFR
10
323.88665
20
55.556813
30
0.0
0
VERTEX
100
AcDbVertex
100
AcDb2dVertex
8
COFFR
10
322.553666
20
55.831779
30
0.0
0
VERTEX
100
AcDbVertex
100
AcDb2dVertex
8
COFFR
10
321.220632
20
56.105089
30
0.0
0
VERTEX
100
AcDbVertex
100
AcDb2dVertex
8
COFFR
10
319.887607
20
56.376771
30
0.0
0
VERTEX
100
AcDbVertex
100
AcDb2dVertex
8
COFFR
10
318.554499
20
56.646562
30
0.0
0
VERTEX
100
AcDbVertex
100
AcDb2dVertex
8
COFFR
10
317.221471
20
56.91472
30
0.0
0
VERTEX
100
AcDbVertex
100
AcDb2dVertex
8
COFFR
10
315.888433
20
57.181208
30
0.0
0
VERTEX
100
AcDbVertex
100
AcDb2dVertex
8
COFFR
10
314.555441
20
57.446172
30
0.0
0
VERTEX
100
AcDbVertex
100
AcDb2dVertex
8
COFFR
10
313.222476
20
57.709693
30
0.0
0
VERTEX
100
AcDbVertex
100
AcDb2dVertex
8
COFFR
10
311.889505
20
57.971753
30
0.0
0
VERTEX
100
AcDbVertex
100
AcDb2dVertex
8
COFFR
10
310.556502
20
58.232253
30
0.0
0
VERTEX
100
AcDbVertex
100
AcDb2dVertex
8
COFFR
10
309.223528
20
58.491284
30
0.0
0
VERTEX
100
AcDbVertex
100
AcDb2dVertex
8
COFFR
10
307.890515
20
58.748721
30
0.0
0
VERTEX
100
AcDbVertex
100
AcDb2dVertex
8
COFFR
10
306.557536
20
59.004674
30
0.0
0
VERTEX
100
AcDbVertex
100
AcDb2dVertex
8
COFFR
10
305.224526
20
59.259042
30
0.0
0
VERTEX
100
AcDbVertex
100
AcDb2dVertex
8
COFFR
10
303.891546
20
59.511923
30
0.0
0
VERTEX
100
AcDbVertex
100
AcDb2dVertex
8
COFFR
10
302.558539
20
59.763232
30
0.0
0
VERTEX
100
AcDbVertex
100
AcDb2dVertex
8
COFFR
10
301.225558
20
60.013047
30
0.0
0
VERTEX
100
AcDbVertex
100
AcDb2dVertex
8
COFFR
10
299.892544
20
60.26127
30
0.0
0
VERTEX
100
AcDbVertex
100
AcDb2dVertex
8
COFFR
10
298.559561
20
60.507993
30
0.0
0
VERTEX
100
AcDbVertex
100
AcDb2dVertex
8
COFFR
10
297.226549
20
60.753128
30
0.0
0
VERTEX
100
AcDbVertex
100
AcDb2dVertex
8
COFFR
10
295.893562
20
60.996755
30
0.0
0
VERTEX
100
AcDbVertex
100
AcDb2dVertex
8
COFFR
10
294.560545
20
61.238776
30
0.0
0
VERTEX
100
AcDbVertex
100
AcDb2dVertex
8
COFFR
10
293.227556
20
61.479279
30
0.0
0
VERTEX
100
AcDbVertex
100
AcDb2dVertex
8
COFFR
10
291.894539
20
61.71818
30
0.0
0
VERTEX
100
AcDbVertex
100
AcDb2dVertex
8
COFFR
10
290.561547
20
61.955554
30
0.0
0
VERTEX
100
AcDbVertex
100
AcDb2dVertex
8
COFFR
10
289.228523
20
62.191303
30
0.0
0
VERTEX
100
AcDbVertex
100
AcDb2dVertex
8
COFFR
10
287.895527
20
62.425515
30
0.0
0
VERTEX
100
AcDbVertex
100
AcDb2dVertex
8
COFFR
10
286.562503
20
62.6581
30
0.0
0
VERTEX
100
AcDbVertex
100
AcDb2dVertex
8
COFFR
10
285.229504
20
62.889138
30
0.0
0
VERTEX
100
AcDbVertex
100
AcDb2dVertex
8
COFFR
10
283.896475
20
63.118536
30
0.0
0
VERTEX
100
AcDbVertex
100
AcDb2dVertex
8
COFFR
10
282.563474
20
63.346381
30
0.0
0
VERTEX
100
AcDbVertex
100
AcDb2dVertex
8
COFFR
10
281.230449
20
63.572594
30
0.0
0
VERTEX
100
AcDbVertex
100
AcDb2dVertex
8
COFFR
10
279.897445
20
63.797246
30
0.0
0
VERTEX
100
AcDbVertex
100
AcDb2dVertex
8
COFFR
10
278.564404
20
64.020219
30
0.0
0
VERTEX
100
AcDbVertex
100
AcDb2dVertex
8
COFFR
10
277.231396
20
64.241616
30
0.0
0
VERTEX
100
AcDbVertex
100
AcDb2dVertex
8
COFFR
10
275.898377
20
64.461405
30
0.0
0
VERTEX
100
AcDbVertex
100
AcDb2dVertex
8
COFFR
10
274.565351
20
64.679561
30
0.0
0
VERTEX
100
AcDbVertex
100
AcDb2dVertex
8
COFFR
10
273.232275
20
64.895932
30
0.0
0
VERTEX
100
AcDbVertex
100
AcDb2dVertex
8
COFFR
10
271.899233
20
65.110621
30
0.0
0
VERTEX
100
AcDbVertex
100
AcDb2dVertex
8
COFFR
10
270.56605
20
65.323189
30
0.0
0
VERTEX
100
AcDbVertex
100
AcDb2dVertex
8
COFFR
10
269.233084
20
65.534317
30
0.0
0
VERTEX
100
AcDbVertex
100
AcDb2dVertex
8
COFFR
10
267.900168
20
65.744154
30
0.0
0
VERTEX
100
AcDbVertex
100
AcDb2dVertex
8
COFFR
10
266.567342
20
65.952984
30
0.0
0
VERTEX
100
AcDbVertex
100
AcDb2dVertex
8
COFFR
10
265.234725
20
66.161453
30
0.0
0
VERTEX
100
AcDbVertex
100
AcDb2dVertex
8
COFFR
10
263.901888
20
66.368873
30
0.0
0
VERTEX
100
AcDbVertex
100
AcDb2dVertex
8
COFFR
10
262.568947
20
66.574923
30
0.0
0
VERTEX
100
AcDbVertex
100
AcDb2dVertex
8
COFFR
10
261.235947
20
66.779422
30
0.0
0
VERTEX
100
AcDbVertex
100
AcDb2dVertex
8
COFFR
10
259.902715
20
66.981646
30
0.0
0
VERTEX
100
AcDbVertex
100
AcDb2dVertex
8
COFFR
10
258.569617
20
67.182018
30
0.0
0
VERTEX
100
AcDbVertex
100
AcDb2dVertex
8
COFFR
10
257.236473
20
67.38039
30
0.0
0
VERTEX
100
AcDbVertex
100
AcDb2dVertex
8
COFFR
10
255.90337
20
67.576894
30
0.0
0
VERTEX
100
AcDbVertex
100
AcDb2dVertex
8
COFFR
10
254.570263
20
67.771514
30
0.0
0
VERTEX
100
AcDbVertex
100
AcDb2dVertex
8
COFFR
10
253.237157
20
67.964255
30
0.0
0
VERTEX
100
AcDbVertex
100
AcDb2dVertex
8
COFFR
10
251.903999
20
68.154954
30
0.0
0
VERTEX
100
AcDbVertex
100
AcDb2dVertex
8
COFFR
10
250.570877
20
68.343725
30
0.0
0
VERTEX
100
AcDbVertex
100
AcDb2dVertex
8
COFFR
10
249.237704
20
68.530408
30
0.0
0
VERTEX
100
AcDbVertex
100
AcDb2dVertex
8
COFFR
10
247.904564
20
68.715107
30
0.0
0
VERTEX
100
AcDbVertex
100
AcDb2dVertex
8
COFFR
10
246.571368
20
68.897647
30
0.0
0
VERTEX
100
AcDbVertex
100
AcDb2dVertex
8
COFFR
10
245.238209
20
69.078146
30
0.0
0
VERTEX
100
AcDbVertex
100
AcDb2dVertex
8
COFFR
10
243.904996
20
69.25643
30
0.0
0
VERTEX
100
AcDbVertex
100
AcDb2dVertex
8
COFFR
10
242.57182
20
69.432617
30
0.0
0
VERTEX
100
AcDbVertex
100
AcDb2dVertex
8
COFFR
10
241.238586
20
69.60653
30
0.0
0
VERTEX
100
AcDbVertex
100
AcDb2dVertex
8
COFFR
10
239.905393
20
69.778294
30
0.0
0
VERTEX
100
AcDbVertex
100
AcDb2dVertex
8
COFFR
10
238.572146
20
69.94774
30
0.0
0
VERTEX
100
AcDbVertex
100
AcDb2dVertex
8
COFFR
10
237.238936
20
70.114983
30
0.0
0
VERTEX
100
AcDbVertex
100
AcDb2dVertex
8
COFFR
10
235.905663
20
70.279828
30
0.0
0
VERTEX
100
AcDbVertex
100
AcDb2dVertex
8
COFFR
10
234.572434
20
70.442414
30
0.0
0
VERTEX
100
AcDbVertex
100
AcDb2dVertex
8
COFFR
10
233.239142
20
70.602543
30
0.0
0
VERTEX
100
AcDbVertex
100
AcDb2dVertex
8
COFFR
10
231.905895
20
70.760358
30
0.0
0
VERTEX
100
AcDbVertex
100
AcDb2dVertex
8
COFFR
10
230.572584
20
70.915654
30
0.0
0
VERTEX
100
AcDbVertex
100
AcDb2dVertex
8
COFFR
10
229.23932
20
71.068583
30
0.0
0
VERTEX
100
AcDbVertex
100
AcDb2dVertex
8
COFFR
10
227.905993
20
71.218947
30
0.0
0
VERTEX
100
AcDbVertex
100
AcDb2dVertex
8
COFFR
10
226.572713
20
71.366891
30
0.0
0
VERTEX
100
AcDbVertex
100
AcDb2dVertex
8
COFFR
10
225.239364
20
71.512204
30
0.0
0
VERTEX
100
AcDbVertex
100
AcDb2dVertex
8
COFFR
10
223.906067
20
71.655044
30
0.0
0
VERTEX
100
AcDbVertex
100
AcDb2dVertex
8
COFFR
10
222.57263
20
71.794979
30
0.0
0
VERTEX
100
AcDbVertex
100
AcDb2dVertex
8
COFFR
10
221.239349
20
71.932494
30
0.0
0
VERTEX
100
AcDbVertex
100
AcDb2dVertex
8
COFFR
10
219.906026
20
72.067455
30
0.0
0
VERTEX
100
AcDbVertex
100
AcDb2dVertex
8
COFFR
10
218.57276
20
72.200043
30
0.0
0
VERTEX
100
AcDbVertex
100
AcDb2dVertex
8
COFFR
10
217.239701
20
72.330897
30
0.0
0
VERTEX
100
AcDbVertex
100
AcDb2dVertex
8
COFFR
10
215.906207
20
72.458666
30
0.0
0
VERTEX
100
AcDbVertex
100
AcDb2dVertex
8
COFFR
10
214.572412
20
72.582415
30
0.0
0
VERTEX
100
AcDbVertex
100
AcDb2dVertex
8
COFFR
10
213.238524
20
72.701858
30
0.0
0
VERTEX
100
AcDbVertex
100
AcDb2dVertex
8
COFFR
10
211.903931
20
72.814801
30
0.0
0
VERTEX
100
AcDbVertex
100
AcDb2dVertex
8
COFFR
10
210.570039
20
72.923438
30
0.0
0
VERTEX
100
AcDbVertex
100
AcDb2dVertex
8
COFFR
10
209.236236
20
73.028035
30
0.0
0
VERTEX
100
AcDbVertex
100
AcDb2dVertex
8
COFFR
10
207.902732
20
73.129523
30
0.0
0
VERTEX
100
AcDbVertex
100
AcDb2dVertex
8
COFFR
10
206.569656
20
73.22923
30
0.0
0
VERTEX
100
AcDbVertex
100
AcDb2dVertex
8
COFFR
10
205.236371
20
73.326501
30
0.0
0
VERTEX
100
AcDbVertex
100
AcDb2dVertex
8
COFFR
10
203.90302
20
73.421131
30
0.0
0
VERTEX
100
AcDbVertex
100
AcDb2dVertex
8
COFFR
10
202.56971
20
73.513252
30
0.0
0
VERTEX
100
AcDbVertex
100
AcDb2dVertex
8
COFFR
10
201.236233
20
73.60234
30
0.0
0
VERTEX
100
AcDbVertex
100
AcDb2dVertex
8
COFFR
10
199.902897
20
73.688838
30
0.0
0
VERTEX
100
AcDbVertex
100
AcDb2dVertex
8
COFFR
10
198.569499
20
73.772552
30
0.0
0
VERTEX
100
AcDbVertex
100
AcDb2dVertex
8
COFFR
10
197.236172
20
73.8537
30
0.0
0
VERTEX
100
AcDbVertex
100
AcDb2dVertex
8
COFFR
10
195.902784
20
73.932095
30
0.0
0
VERTEX
100
AcDbVertex
100
AcDb2dVertex
8
COFFR
10
194.569464
20
74.007948
30
0.0
0
VERTEX
100
AcDbVertex
100
AcDb2dVertex
8
COFFR
10
193.236083
20
74.08107
30
0.0
0
VERTEX
100
AcDbVertex
100
AcDb2dVertex
8
COFFR
10
191.902771
20
74.151673
30
0.0
0
VERTEX
100
AcDbVertex
100
AcDb2dVertex
8
COFFR
10
190.569399
20
74.219572
30
0.0
0
VERTEX
100
AcDbVertex
100
AcDb2dVertex
8
COFFR
10
189.236093
20
74.284973
30
0.0
0
VERTEX
100
AcDbVertex
100
AcDb2dVertex
8
COFFR
10
187.902726
20
74.347686
30
0.0
0
VERTEX
100
AcDbVertex
100
AcDb2dVertex
8
COFFR
10
186.569425
20
74.407916
30
0.0
0
VERTEX
100
AcDbVertex
100
AcDb2dVertex
8
COFFR
10
185.236065
20
74.465478
30
0.0
0
VERTEX
100
AcDbVertex
100
AcDb2dVertex
8
COFFR
10
183.902768
20
74.52057
30
0.0
0
VERTEX
100
AcDbVertex
100
AcDb2dVertex
8
COFFR
10
182.569409
20
74.572997
30
0.0
0
VERTEX
100
AcDbVertex
100
AcDb2dVertex
8
COFFR
10
181.236115
20
74.622963
30
0.0
0
VERTEX
100
AcDbVertex
100
AcDb2dVertex
8
COFFR
10
179.902757
20
74.670269
30
0.0
0
VERTEX
100
AcDbVertex
100
AcDb2dVertex
8
COFFR
10
178.569465
20
74.715121
30
0.0
0
VERTEX
100
AcDbVertex
100
AcDb2dVertex
8
COFFR
10
177.236111
20
74.757323
30
0.0
0
VERTEX
100
AcDbVertex
100
AcDb2dVertex
8
COFFR
10
175.902822
20
74.797078
30
0.0
0
VERTEX
100
AcDbVertex
100
AcDb2dVertex
8
COFFR
10
174.569471
20
74.834196
30
0.0
0
VERTEX
100
AcDbVertex
100
AcDb2dVertex
8
COFFR
10
173.236181
20
74.868863
30
0.0
0
VERTEX
100
AcDbVertex
100
AcDb2dVertex
8
COFFR
10
171.902824
20
74.900874
30
0.0
0
VERTEX
100
AcDbVertex
100
AcDb2dVertex
8
COFFR
10
170.56953
20
74.930423
30
0.0
0
VERTEX
100
AcDbVertex
100
AcDb2dVertex
8
COFFR
10
169.23624
20
74.957521
30
0.0
0
VERTEX
100
AcDbVertex
100
AcDb2dVertex
8
COFFR
10
167.902908
20
74.98204
30
0.0
0
VERTEX
100
AcDbVertex
100
AcDb2dVertex
8
COFFR
10
166.569479
20
75.003677
30
0.0
0
VERTEX
100
AcDbVertex
100
AcDb2dVertex
8
COFFR
10
165.236111
20
75.022624
30
0.0
0
VERTEX
100
AcDbVertex
100
AcDb2dVertex
8
COFFR
10
163.902394
20
75.037796
30
0.0
0
VERTEX
100
AcDbVertex
100
AcDb2dVertex
8
COFFR
10
162.56923
20
75.050913
30
0.0
0
VERTEX
100
AcDbVertex
100
AcDb2dVertex
8
COFFR
10
161.236224
20
75.062458
30
0.0
0
VERTEX
100
AcDbVertex
100
AcDb2dVertex
8
COFFR
10
159.90343
20
75.073095
30
0.0
0
VERTEX
100
AcDbVertex
100
AcDb2dVertex
8
COFFR
10
158.571202
20
75.084575
30
0.0
0
VERTEX
100
AcDbVertex
100
AcDb2dVertex
8
COFFR
10
157.238377
20
75.095047
30
0.0
0
VERTEX
100
AcDbVertex
100
AcDb2dVertex
8
COFFR
10
155.905303
20
75.103738
30
0.0
0
VERTEX
100
AcDbVertex
100
AcDb2dVertex
8
COFFR
10
154.572047
20
75.110084
30
0.0
0
VERTEX
100
AcDbVertex
100
AcDb2dVertex
8
COFFR
10
153.238192
20
75.112229
30
0.0
0
VERTEX
100
AcDbVertex
100
AcDb2dVertex
8
COFFR
10
151.905324
20
75.111224
30
0.0
0
VERTEX
100
AcDbVertex
100
AcDb2dVertex
8
COFFR
10
150.57394
20
75.106758
30
0.0
0
VERTEX
100
AcDbVertex
100
AcDb2dVertex
8
COFFR
10
149.242468
20
75.099106
30
0.0
0
VERTEX
100
AcDbVertex
100
AcDb2dVertex
8
COFFR
10
147.910996
20
75.088266
30
0.0
0
VERTEX
100
AcDbVertex
100
AcDb2dVertex
8
COFFR
10
146.579533
20
75.07421
30
0.0
0
VERTEX
100
AcDbVertex
100
AcDb2dVertex
8
COFFR
10
145.248181
20
75.056597
30
0.0
0
VERTEX
100
AcDbVertex
100
AcDb2dVertex
8
COFFR
10
143.916761
20
75.035633
30
0.0
0
VERTEX
100
AcDbVertex
100
AcDb2dVertex
8
COFFR
10
142.585455
20
75.010967
30
0.0
0
VERTEX
100
AcDbVertex
100
AcDb2dVertex
8
COFFR
10
141.254083
20
74.982806
30
0.0
0
VERTEX
100
AcDbVertex
100
AcDb2dVertex
8
COFFR
10
139.922833
20
74.95077
30
0.0
0
VERTEX
100
AcDbVertex
100
AcDb2dVertex
8
COFFR
10
138.59151
20
74.915083
30
0.0
0
VERTEX
100
AcDbVertex
100
AcDb2dVertex
8
COFFR
10
137.260318
20
74.875343
30
0.0
0
VERTEX
100
AcDbVertex
100
AcDb2dVertex
8
COFFR
10
135.929044
20
74.831799
30
0.0
0
VERTEX
100
AcDbVertex
100
AcDb2dVertex
8
COFFR
10
134.597901
20
74.784048
30
0.0
0
VERTEX
100
AcDbVertex
100
AcDb2dVertex
8
COFFR
10
133.266677
20
74.732343
30
0.0
0
VERTEX
100
AcDbVertex
100
AcDb2dVertex
8
COFFR
10
131.935586
20
74.676268
30
0.0
0
VERTEX
100
AcDbVertex
100
AcDb2dVertex
8
COFFR
10
130.604412
20
74.616082
30
0.0
0
VERTEX
100
AcDbVertex
100
AcDb2dVertex
8
COFFR
10
129.273378
20
74.551352
30
0.0
0
VERTEX
100
AcDbVertex
100
AcDb2dVertex
8
COFFR
10
127.942374
20
74.481983
30
0.0
0
VERTEX
100
AcDbVertex
100
AcDb2dVertex
8
COFFR
10
126.611163
20
74.408616
30
0.0
0
VERTEX
100
AcDbVertex
100
AcDb2dVertex
8
COFFR
10
125.280212
20
74.330447
30
0.0
0
VERTEX
100
AcDbVertex
100
AcDb2dVertex
8
COFFR
10
123.949291
20
74.247384
30
0.0
0
VERTEX
100
AcDbVertex
100
AcDb2dVertex
8
COFFR
10
122.618401
20
74.159329
30
0.0
0
VERTEX
100
AcDbVertex
100
AcDb2dVertex
8
COFFR
10
121.287285
20
74.066982
30
0.0
0
VERTEX
100
AcDbVertex
100
AcDb2dVertex
8
COFFR
10
119.956447
20
73.969485
30
0.0
0
VERTEX
100
AcDbVertex
100
AcDb2dVertex
8
COFFR
10
118.625638
20
73.866743
30
0.0
0
VERTEX
100
AcDbVertex
100
AcDb2dVertex
8
COFFR
10
117.294865
20
73.758649
30
0.0
0
VERTEX
100
AcDbVertex
100
AcDb2dVertex
8
COFFR
10
115.963855
20
73.645932
30
0.0
0
VERTEX
100
AcDbVertex
100
AcDb2dVertex
8
COFFR
10
114.633125
20
73.52773
30
0.0
0
VERTEX
100
AcDbVertex
100
AcDb2dVertex
8
COFFR
10
113.302413
20
73.403984
30
0.0
0
VERTEX
100
AcDbVertex
100
AcDb2dVertex
8
COFFR
10
111.971713
20
73.274659
30
0.0
0
VERTEX
100
AcDbVertex
100
AcDb2dVertex
8
COFFR
10
110.640729
20
73.140629
30
0.0
0
VERTEX
100
AcDbVertex
100
AcDb2dVertex
8
COFFR
10
109.310141
20
73.000675
30
0.0
0
VERTEX
100
AcDbVertex
100
AcDb2dVertex
8
COFFR
10
107.979666
20
72.854444
30
0.0
0
VERTEX
100
AcDbVertex
100
AcDb2dVertex
8
COFFR
10
106.64931
20
72.701568
30
0.0
0
VERTEX
100
AcDbVertex
100
AcDb2dVertex
8
COFFR
10
105.318728
20
72.542741
30
0.0
0
VERTEX
100
AcDbVertex
100
AcDb2dVertex
8
COFFR
10
103.9884
20
72.377183
30
0.0
0
VERTEX
100
AcDbVertex
100
AcDb2dVertex
8
COFFR
10
102.657989
20
72.205146
30
0.0
0
VERTEX
100
AcDbVertex
100
AcDb2dVertex
8
COFFR
10
101.327498
20
72.026879
30
0.0
0
VERTEX
100
AcDbVertex
100
AcDb2dVertex
8
COFFR
10
99.99662
20
71.843575
30
0.0
0
VERTEX
100
AcDbVertex
100
AcDb2dVertex
8
COFFR
10
98.666097
20
71.654148
30
0.0
0
VERTEX
100
AcDbVertex
100
AcDb2dVertex
8
COFFR
10
97.335623
20
71.458438
30
0.0
0
VERTEX
100
AcDbVertex
100
AcDb2dVertex
8
COFFR
10
96.005193
20
71.256311
30
0.0
0
VERTEX
100
AcDbVertex
100
AcDb2dVertex
8
COFFR
10
94.674484
20
71.048623
30
0.0
0
VERTEX
100
AcDbVertex
100
AcDb2dVertex
8
COFFR
10
93.344111
20
70.834348
30
0.0
0
VERTEX
100
AcDbVertex
100
AcDb2dVertex
8
COFFR
10
92.013759
20
70.613412
30
0.0
0
VERTEX
100
AcDbVertex
100
AcDb2dVertex
8
COFFR
10
90.683457
20
70.385663
30
0.0
0
VERTEX
100
AcDbVertex
100
AcDb2dVertex
8
COFFR
10
89.352877
20
70.151953
30
0.0
0
VERTEX
100
AcDbVertex
100
AcDb2dVertex
8
COFFR
10
88.022574
20
69.911436
30
0.0
0
VERTEX
100
AcDbVertex
100
AcDb2dVertex
8
COFFR
10
86.692234
20
69.664218
30
0.0
0
VERTEX
100
AcDbVertex
100
AcDb2dVertex
8
COFFR
10
85.361815
20
69.410545
30
0.0
0
VERTEX
100
AcDbVertex
100
AcDb2dVertex
8
COFFR
10
84.030944
20
69.151806
30
0.0
0
VERTEX
100
AcDbVertex
100
AcDb2dVertex
8
COFFR
10
82.700903
20
68.885466
30
0.0
0
VERTEX
100
AcDbVertex
100
AcDb2dVertex
8
COFFR
10
81.371345
20
68.610015
30
0.0
0
VERTEX
100
AcDbVertex
100
AcDb2dVertex
8
COFFR
10
80.042287
20
68.323903
30
0.0
0
VERTEX
100
AcDbVertex
100
AcDb2dVertex
8
COFFR
10
78.713165
20
68.027314
30
0.0
0
VERTEX
100
AcDbVertex
100
AcDb2dVertex
8
COFFR
10
77.384062
20
67.72019
30
0.0
0
VERTEX
100
AcDbVertex
100
AcDb2dVertex
8
COFFR
10
76.054411
20
67.404211
30
0.0
0
VERTEX
100
AcDbVertex
100
AcDb2dVertex
8
COFFR
10
74.724228
20
67.081027
30
0.0
0
VERTEX
100
AcDbVertex
100
AcDb2dVertex
8
COFFR
10
73.393204
20
66.753238
30
0.0
0
VERTEX
100
AcDbVertex
100
AcDb2dVertex
8
COFFR
10
72.062627
20
66.419496
30
0.0
0
VERTEX
100
AcDbVertex
100
AcDb2dVertex
8
COFFR
10
70.732161
20
66.079449
30
0.0
0
VERTEX
100
AcDbVertex
100
AcDb2dVertex
8
COFFR
10
69.401774
20
65.732851
30
0.0
0
VERTEX
100
AcDbVertex
100
AcDb2dVertex
8
COFFR
10
68.071163
20
65.380383
30
0.0
0
VERTEX
100
AcDbVertex
100
AcDb2dVertex
8
COFFR
10
66.740862
20
65.021105
30
0.0
0
VERTEX
100
AcDbVertex
100
AcDb2dVertex
8
COFFR
10
65.410568
20
64.654984
30
0.0
0
VERTEX
100
AcDbVertex
100
AcDb2dVertex
8
COFFR
10
64.080316
20
64.28189
30
0.0
0
VERTEX
100
AcDbVertex
100
AcDb2dVertex
8
COFFR
10
62.749749
20
63.902785
30
0.0
0
VERTEX
100
AcDbVertex
100
AcDb2dVertex
8
COFFR
10
61.419629
20
63.516314
30
0.0
0
VERTEX
100
AcDbVertex
100
AcDb2dVertex
8
COFFR
10
60.089616
20
63.12213
30
0.0
0
VERTEX
100
AcDbVertex
100
AcDb2dVertex
8
COFFR
10
58.759754
20
62.719767
30
0.0
0
VERTEX
100
AcDbVertex
100
AcDb2dVertex
8
COFFR
10
57.429636
20
62.310002
30
0.0
0
VERTEX
100
AcDbVertex
100
AcDb2dVertex
8
COFFR
10
56.099872
20
61.891761
30
0.0
0
VERTEX
100
AcDbVertex
100
AcDb2dVertex
8
COFFR
10
54.77009
20
61.465086
30
0.0
0
VERTEX
100
AcDbVertex
100
AcDb2dVertex
8
COFFR
10
53.440301
20
61.029997
30
0.0
0
VERTEX
100
AcDbVertex
100
AcDb2dVertex
8
COFFR
10
52.11005
20
60.587907
30
0.0
0
VERTEX
100
AcDbVertex
100
AcDb2dVertex
8
COFFR
10
50.780734
20
60.135982
30
0.0
0
VERTEX
100
AcDbVertex
100
AcDb2dVertex
8
COFFR
10
49.451968
20
59.672493
30
0.0
0
VERTEX
100
AcDbVertex
100
AcDb2dVertex
8
COFFR
10
48.123768
20
59.195686
30
0.0
0
VERTEX
100
AcDbVertex
100
AcDb2dVertex
8
COFFR
10
46.795378
20
58.706113
30
0.0
0
VERTEX
100
AcDbVertex
100
AcDb2dVertex
8
COFFR
10
45.467867
20
58.201103
30
0.0
0
VERTEX
100
AcDbVertex
100
AcDb2dVertex
8
COFFR
10
44.140575
20
57.679939
30
0.0
0
VERTEX
100
AcDbVertex
100
AcDb2dVertex
8
COFFR
10
42.813543
20
57.141817
30
0.0
0
VERTEX
100
AcDbVertex
100
AcDb2dVertex
8
COFFR
10
41.485844
20
56.588751
30
0.0
0
VERTEX
100
AcDbVertex
100
AcDb2dVertex
8
COFFR
10
40.159302
20
56.017257
30
0.0
0
VERTEX
100
AcDbVertex
100
AcDb2dVertex
8
COFFR
10
38.833084
20
55.426276
30
0.0
0
VERTEX
100
AcDbVertex
100
AcDb2dVertex
8
COFFR
10
37.507141
20
54.814952
30
0.0
0
VERTEX
100
AcDbVertex
100
AcDb2dVertex
8
COFFR
10
36.180335
20
54.185888
30
0.0
0
VERTEX
100
AcDbVertex
100
AcDb2dVertex
8
COFFR
10
34.855158
20
53.534187
30
0.0
0
VERTEX
100
AcDbVertex
100
AcDb2dVertex
8
COFFR
10
33.530568
20
52.857955
30
0.0
0
VERTEX
100
AcDbVertex
100
AcDb2dVertex
8
COFFR
10
32.206652
20
52.155104
30
0.0
0
VERTEX
100
AcDbVertex
100
AcDb2dVertex
8
COFFR
10
30.882051
20
51.427659
30
0.0
0
VERTEX
100
AcDbVertex
100
AcDb2dVertex
8
COFFR
10
29.558255
20
50.673222
30
0.0
0
VERTEX
100
AcDbVertex
100
AcDb2dVertex
8
COFFR
10
28.23399
20
49.893148
30
0.0
0
VERTEX
100
AcDbVertex
100
AcDb2dVertex
8
COFFR
10
26.90891
20
49.089935
30
0.0
0
VERTEX
100
AcDbVertex
100
AcDb2dVertex
8
COFFR
10
25.583855
20
48.26357
30
0.0
0
VERTEX
100
AcDbVertex
100
AcDb2dVertex
8
COFFR
10
24.259232
20
47.412736
30
0.0
0
VERTEX
100
AcDbVertex
100
AcDb2dVertex
8
COFFR
10
22.935939
20
46.533374
30
0.0
0
VERTEX
100
AcDbVertex
100
AcDb2dVertex
8
COFFR
10
21.612699
20
45.625199
30
0.0
0
VERTEX
100
AcDbVertex
100
AcDb2dVertex
8
COFFR
10
20.291064
20
44.683357
30
0.0
0
SEQEND
0
POLYLINE
5
 503
100
AcDbEntity
8
COFFR
66
 1
100
AcDb2dPolyline
70
 0
0
VERTEX
100
AcDbVertex
100
AcDb2dVertex
8
COFFR
10
523.700207
20
3.798171
30
0.0
0
VERTEX
100
AcDbVertex
100
AcDb2dVertex
8
COFFR
10
522.363435
20
3.725539
30
0.0
0
VERTEX
100
AcDbVertex
100
AcDb2dVertex
8
COFFR
10
521.025123
20
3.670932
30
0.0
0
VERTEX
100
AcDbVertex
100
AcDb2dVertex
8
COFFR
10
519.692623
20
3.616285
30
0.0
0
VERTEX
100
AcDbVertex
100
AcDb2dVertex
8
COFFR
10
518.360123
20
3.561639
30
0.0
0
VERTEX
100
AcDbVertex
100
AcDb2dVertex
8
COFFR
10
517.027624
20
3.506989
30
0.0
0
VERTEX
100
AcDbVertex
100
AcDb2dVertex
8
COFFR
10
515.690921
20
3.465392
30
0.0
0
VERTEX
100
AcDbVertex
100
AcDb2dVertex
8
COFFR
10
514.357235
20
3.427457
30
0.0
0
VERTEX
100
AcDbVertex
100
AcDb2dVertex
8
COFFR
10
513.0235
20
3.393353
30
0.0
0
VERTEX
100
AcDbVertex
100
AcDb2dVertex
8
COFFR
10
511.689907
20
3.362635
30
0.0
0
VERTEX
100
AcDbVertex
100
AcDb2dVertex
8
COFFR
10
510.356272
20
3.335437
30
0.0
0
VERTEX
100
AcDbVertex
100
AcDb2dVertex
8
COFFR
10
509.022768
20
3.311352
30
0.0
0
VERTEX
100
AcDbVertex
100
AcDb2dVertex
8
COFFR
10
507.689224
20
3.290505
30
0.0
0
VERTEX
100
AcDbVertex
100
AcDb2dVertex
8
COFFR
10
506.355802
20
3.272516
30
0.0
0
VERTEX
100
AcDbVertex
100
AcDb2dVertex
8
COFFR
10
505.022343
20
3.257501
30
0.0
0
VERTEX
100
AcDbVertex
100
AcDb2dVertex
8
COFFR
10
503.689
20
3.245097
30
0.0
0
VERTEX
100
AcDbVertex
100
AcDb2dVertex
8
COFFR
10
502.355629
20
3.235396
30
0.0
0
VERTEX
100
AcDbVertex
100
AcDb2dVertex
8
COFFR
10
501.022363
20
3.228069
30
0.0
0
VERTEX
100
AcDbVertex
100
AcDb2dVertex
8
COFFR
10
499.689074
20
3.22319
30
0.0
0
VERTEX
100
AcDbVertex
100
AcDb2dVertex
8
COFFR
10
498.355879
20
3.220465
30
0.0
0
VERTEX
100
AcDbVertex
100
AcDb2dVertex
8
COFFR
10
497.022662
20
3.219962
30
0.0
0
VERTEX
100
AcDbVertex
100
AcDb2dVertex
8
COFFR
10
495.690466
20
3.221408
30
0.0
0
VERTEX
100
AcDbVertex
100
AcDb2dVertex
8
COFFR
10
494.358647
20
3.224964
30
0.0
0
VERTEX
100
AcDbVertex
100
AcDb2dVertex
8
COFFR
10
493.026698
20
3.230228
30
0.0
0
VERTEX
100
AcDbVertex
100
AcDb2dVertex
8
COFFR
10
491.69475
20
3.237203
30
0.0
0
VERTEX
100
AcDbVertex
100
AcDb2dVertex
8
COFFR
10
490.362727
20
3.245659
30
0.0
0
VERTEX
100
AcDbVertex
100
AcDb2dVertex
8
COFFR
10
489.030599
20
3.255269
30
0.0
0
VERTEX
100
AcDbVertex
100
AcDb2dVertex
8
COFFR
10
487.698611
20
3.266466
30
0.0
0
VERTEX
100
AcDbVertex
100
AcDb2dVertex
8
COFFR
10
486.36673
20
3.279582
30
0.0
0
VERTEX
100
AcDbVertex
100
AcDb2dVertex
8
COFFR
10
485.034856
20
3.294639
30
0.0
0
VERTEX
100
AcDbVertex
100
AcDb2dVertex
8
COFFR
10
483.703216
20
3.312364
30
0.0
0
VERTEX
100
AcDbVertex
100
AcDb2dVertex
8
COFFR
10
482.371325
20
3.331976
30
0.0
0
VERTEX
100
AcDbVertex
100
AcDb2dVertex
8
COFFR
10
481.0394
20
3.353371
30
0.0
0
VERTEX
100
AcDbVertex
100
AcDb2dVertex
8
COFFR
10
479.70734
20
3.37613
30
0.0
0
VERTEX
100
AcDbVertex
100
AcDb2dVertex
8
COFFR
10
478.375202
20
3.400011
30
0.0
0
VERTEX
100
AcDbVertex
100
AcDb2dVertex
8
COFFR
10
477.042939
20
3.424628
30
0.0
0
VERTEX
100
AcDbVertex
100
AcDb2dVertex
8
COFFR
10
475.710589
20
3.44971
30
0.0
0
VERTEX
100
AcDbVertex
100
AcDb2dVertex
8
COFFR
10
474.378139
20
3.474947
30
0.0
0
VERTEX
100
AcDbVertex
100
AcDb2dVertex
8
COFFR
10
473.045522
20
3.499823
30
0.0
0
VERTEX
100
AcDbVertex
100
AcDb2dVertex
8
COFFR
10
471.712986
20
3.524586
30
0.0
0
VERTEX
100
AcDbVertex
100
AcDb2dVertex
8
COFFR
10
470.380448
20
3.549233
30
0.0
0
VERTEX
100
AcDbVertex
100
AcDb2dVertex
8
COFFR
10
469.047929
20
3.573819
30
0.0
0
VERTEX
100
AcDbVertex
100
AcDb2dVertex
8
COFFR
10
467.715467
20
3.598523
30
0.0
0
VERTEX
100
AcDbVertex
100
AcDb2dVertex
8
COFFR
10
466.382967
20
3.623228
30
0.0
0
VERTEX
100
AcDbVertex
100
AcDb2dVertex
8
COFFR
10
465.050466
20
3.64793
30
0.0
0
VERTEX
100
AcDbVertex
100
AcDb2dVertex
8
COFFR
10
463.717968
20
3.672637
30
0.0
0
VERTEX
100
AcDbVertex
100
AcDb2dVertex
8
COFFR
10
462.38547
20
3.697349
30
0.0
0
VERTEX
100
AcDbVertex
100
AcDb2dVertex
8
COFFR
10
461.052971
20
3.722066
30
0.0
0
VERTEX
100
AcDbVertex
100
AcDb2dVertex
8
COFFR
10
459.720472
20
3.746786
30
0.0
0
VERTEX
100
AcDbVertex
100
AcDb2dVertex
8
COFFR
10
458.387973
20
3.771508
30
0.0
0
VERTEX
100
AcDbVertex
100
AcDb2dVertex
8
COFFR
10
457.055472
20
3.796228
30
0.0
0
VERTEX
100
AcDbVertex
100
AcDb2dVertex
8
COFFR
10
455.722972
20
3.820948
30
0.0
0
VERTEX
100
AcDbVertex
100
AcDb2dVertex
8
COFFR
10
454.390471
20
3.845665
30
0.0
0
VERTEX
100
AcDbVertex
100
AcDb2dVertex
8
COFFR
10
453.05797
20
3.87038
30
0.0
0
VERTEX
100
AcDbVertex
100
AcDb2dVertex
8
COFFR
10
451.725467
20
3.895084
30
0.0
0
VERTEX
100
AcDbVertex
100
AcDb2dVertex
8
COFFR
10
450.392967
20
3.919788
30
0.0
0
VERTEX
100
AcDbVertex
100
AcDb2dVertex
8
COFFR
10
449.060466
20
3.944491
30
0.0
0
VERTEX
100
AcDbVertex
100
AcDb2dVertex
8
COFFR
10
447.727968
20
3.969198
30
0.0
0
VERTEX
100
AcDbVertex
100
AcDb2dVertex
8
COFFR
10
446.39547
20
3.993911
30
0.0
0
VERTEX
100
AcDbVertex
100
AcDb2dVertex
8
COFFR
10
445.062971
20
4.018629
30
0.0
0
VERTEX
100
AcDbVertex
100
AcDb2dVertex
8
COFFR
10
443.730472
20
4.043347
30
0.0
0
VERTEX
100
AcDbVertex
100
AcDb2dVertex
8
COFFR
10
442.397973
20
4.068069
30
0.0
0
VERTEX
100
AcDbVertex
100
AcDb2dVertex
8
COFFR
10
441.065471
20
4.092786
30
0.0
0
VERTEX
100
AcDbVertex
100
AcDb2dVertex
8
COFFR
10
439.732971
20
4.117505
30
0.0
0
VERTEX
100
AcDbVertex
100
AcDb2dVertex
8
COFFR
10
438.400471
20
4.142222
30
0.0
0
VERTEX
100
AcDbVertex
100
AcDb2dVertex
8
COFFR
10
437.067972
20
4.166941
30
0.0
0
VERTEX
100
AcDbVertex
100
AcDb2dVertex
8
COFFR
10
435.735484
20
4.191698
30
0.0
0
VERTEX
100
AcDbVertex
100
AcDb2dVertex
8
COFFR
10
434.402979
20
4.216439
30
0.0
0
VERTEX
100
AcDbVertex
100
AcDb2dVertex
8
COFFR
10
433.070467
20
4.241143
30
0.0
0
VERTEX
100
AcDbVertex
100
AcDb2dVertex
8
COFFR
10
431.737956
20
4.265812
30
0.0
0
VERTEX
100
AcDbVertex
100
AcDb2dVertex
8
COFFR
10
430.405383
20
4.290257
30
0.0
0
VERTEX
100
AcDbVertex
100
AcDb2dVertex
8
COFFR
10
429.072913
20
4.314795
30
0.0
0
VERTEX
100
AcDbVertex
100
AcDb2dVertex
8
COFFR
10
427.740486
20
4.339557
30
0.0
0
VERTEX
100
AcDbVertex
100
AcDb2dVertex
8
COFFR
10
426.408086
20
4.36463
30
0.0
0
VERTEX
100
AcDbVertex
100
AcDb2dVertex
8
COFFR
10
425.075823
20
4.390439
30
0.0
0
VERTEX
100
AcDbVertex
100
AcDb2dVertex
8
COFFR
10
423.743395
20
4.41647
30
0.0
0
VERTEX
100
AcDbVertex
100
AcDb2dVertex
8
COFFR
10
422.410908
20
4.442542
30
0.0
0
VERTEX
100
AcDbVertex
100
AcDb2dVertex
8
COFFR
10
421.078358
20
4.468458
30
0.0
0
VERTEX
100
AcDbVertex
100
AcDb2dVertex
8
COFFR
10
419.745656
20
4.493751
30
0.0
0
VERTEX
100
AcDbVertex
100
AcDb2dVertex
8
COFFR
10
418.413037
20
4.518674
30
0.0
0
VERTEX
100
AcDbVertex
100
AcDb2dVertex
8
COFFR
10
417.080405
20
4.543185
30
0.0
0
VERTEX
100
AcDbVertex
100
AcDb2dVertex
8
COFFR
10
415.747787
20
4.567331
30
0.0
0
VERTEX
100
AcDbVertex
100
AcDb2dVertex
8
COFFR
10
414.415187
20
4.591167
30
0.0
0
VERTEX
100
AcDbVertex
100
AcDb2dVertex
8
COFFR
10
413.082571
20
4.614643
30
0.0
0
VERTEX
100
AcDbVertex
100
AcDb2dVertex
8
COFFR
10
411.749939
20
4.637711
30
0.0
0
VERTEX
100
AcDbVertex
100
AcDb2dVertex
8
COFFR
10
410.417315
20
4.660394
30
0.0
0
VERTEX
100
AcDbVertex
100
AcDb2dVertex
8
COFFR
10
409.084674
20
4.68264
30
0.0
0
VERTEX
100
AcDbVertex
100
AcDb2dVertex
8
COFFR
10
407.752042
20
4.704476
30
0.0
0
VERTEX
100
AcDbVertex
100
AcDb2dVertex
8
COFFR
10
406.419393
20
4.725852
30
0.0
0
VERTEX
100
AcDbVertex
100
AcDb2dVertex
8
COFFR
10
405.086754
20
4.746794
30
0.0
0
VERTEX
100
AcDbVertex
100
AcDb2dVertex
8
COFFR
10
403.754097
20
4.767251
30
0.0
0
VERTEX
100
AcDbVertex
100
AcDb2dVertex
8
COFFR
10
402.421451
20
4.787255
30
0.0
0
VERTEX
100
AcDbVertex
100
AcDb2dVertex
8
COFFR
10
401.088789
20
4.806756
30
0.0
0
VERTEX
100
AcDbVertex
100
AcDb2dVertex
8
COFFR
10
399.756137
20
4.825786
30
0.0
0
VERTEX
100
AcDbVertex
100
AcDb2dVertex
8
COFFR
10
398.42347
20
4.844297
30
0.0
0
VERTEX
100
AcDbVertex
100
AcDb2dVertex
8
COFFR
10
397.090812
20
4.86232
30
0.0
0
VERTEX
100
AcDbVertex
100
AcDb2dVertex
8
COFFR
10
395.758138
20
4.879804
30
0.0
0
VERTEX
100
AcDbVertex
100
AcDb2dVertex
8
COFFR
10
394.425475
20
4.896783
30
0.0
0
VERTEX
100
AcDbVertex
100
AcDb2dVertex
8
COFFR
10
393.092794
20
4.913201
30
0.0
0
VERTEX
100
AcDbVertex
100
AcDb2dVertex
8
COFFR
10
391.760128
20
4.929102
30
0.0
0
VERTEX
100
AcDbVertex
100
AcDb2dVertex
8
COFFR
10
390.427446
20
4.944438
30
0.0
0
VERTEX
100
AcDbVertex
100
AcDb2dVertex
8
COFFR
10
389.094777
20
4.959251
30
0.0
0
VERTEX
100
AcDbVertex
100
AcDb2dVertex
8
COFFR
10
387.762094
20
4.973497
30
0.0
0
VERTEX
100
AcDbVertex
100
AcDb2dVertex
8
COFFR
10
386.429422
20
4.98721
30
0.0
0
VERTEX
100
AcDbVertex
100
AcDb2dVertex
8
COFFR
10
385.096734
20
5.000339
30
0.0
0
VERTEX
100
AcDbVertex
100
AcDb2dVertex
8
COFFR
10
383.764059
20
5.012926
30
0.0
0
VERTEX
100
AcDbVertex
100
AcDb2dVertex
8
COFFR
10
382.431351
20
5.024867
30
0.0
0
VERTEX
100
AcDbVertex
100
AcDb2dVertex
8
COFFR
10
381.098681
20
5.03628
30
0.0
0
VERTEX
100
AcDbVertex
100
AcDb2dVertex
8
COFFR
10
379.766001
20
5.047137
30
0.0
0
VERTEX
100
AcDbVertex
100
AcDb2dVertex
8
COFFR
10
378.433337
20
5.057485
30
0.0
0
VERTEX
100
AcDbVertex
100
AcDb2dVertex
8
COFFR
10
377.100716
20
5.067457
30
0.0
0
VERTEX
100
AcDbVertex
100
AcDb2dVertex
8
COFFR
10
375.768008
20
5.076785
30
0.0
0
VERTEX
100
AcDbVertex
100
AcDb2dVertex
8
COFFR
10
374.435238
20
5.085275
30
0.0
0
VERTEX
100
AcDbVertex
100
AcDb2dVertex
8
COFFR
10
373.102452
20
5.092877
30
0.0
0
VERTEX
100
AcDbVertex
100
AcDb2dVertex
8
COFFR
10
371.76952
20
5.099141
30
0.0
0
VERTEX
100
AcDbVertex
100
AcDb2dVertex
8
COFFR
10
370.436736
20
5.104523
30
0.0
0
VERTEX
100
AcDbVertex
100
AcDb2dVertex
8
COFFR
10
369.103971
20
5.109085
30
0.0
0
VERTEX
100
AcDbVertex
100
AcDb2dVertex
8
COFFR
10
367.771271
20
5.113025
30
0.0
0
VERTEX
100
AcDbVertex
100
AcDb2dVertex
8
COFFR
10
366.438659
20
5.116618
30
0.0
0
VERTEX
100
AcDbVertex
100
AcDb2dVertex
8
COFFR
10
365.106008
20
5.119745
30
0.0
0
VERTEX
100
AcDbVertex
100
AcDb2dVertex
8
COFFR
10
363.773348
20
5.122373
30
0.0
0
VERTEX
100
AcDbVertex
100
AcDb2dVertex
8
COFFR
10
362.440698
20
5.124538
30
0.0
0
VERTEX
100
AcDbVertex
100
AcDb2dVertex
8
COFFR
10
361.108019
20
5.126148
30
0.0
0
VERTEX
100
AcDbVertex
100
AcDb2dVertex
8
COFFR
10
359.77537
20
5.127294
30
0.0
0
VERTEX
100
AcDbVertex
100
AcDb2dVertex
8
COFFR
10
358.442711
20
5.12795
30
0.0
0
VERTEX
100
AcDbVertex
100
AcDb2dVertex
8
COFFR
10
357.110069
20
5.128162
30
0.0
0
VERTEX
100
AcDbVertex
100
AcDb2dVertex
8
COFFR
10
355.777583
20
5.127904
30
0.0
0
VERTEX
100
AcDbVertex
100
AcDb2dVertex
8
COFFR
10
354.445219
20
5.127225
30
0.0
0
VERTEX
100
AcDbVertex
100
AcDb2dVertex
8
COFFR
10
353.112861
20
5.126105
30
0.0
0
VERTEX
100
AcDbVertex
100
AcDb2dVertex
8
COFFR
10
351.780488
20
5.124591
30
0.0
0
VERTEX
100
AcDbVertex
100
AcDb2dVertex
8
COFFR
10
350.448121
20
5.122667
30
0.0
0
VERTEX
100
AcDbVertex
100
AcDb2dVertex
8
COFFR
10
349.115739
20
5.120374
30
0.0
0
VERTEX
100
AcDbVertex
100
AcDb2dVertex
8
COFFR
10
347.783363
20
5.117697
30
0.0
0
VERTEX
100
AcDbVertex
100
AcDb2dVertex
8
COFFR
10
346.450974
20
5.114677
30
0.0
0
VERTEX
100
AcDbVertex
100
AcDb2dVertex
8
COFFR
10
345.118589
20
5.111299
30
0.0
0
VERTEX
100
AcDbVertex
100
AcDb2dVertex
8
COFFR
10
343.786191
20
5.107605
30
0.0
0
VERTEX
100
AcDbVertex
100
AcDb2dVertex
8
COFFR
10
342.453797
20
5.103583
30
0.0
0
VERTEX
100
AcDbVertex
100
AcDb2dVertex
8
COFFR
10
341.12139
20
5.099273
30
0.0
0
VERTEX
100
AcDbVertex
100
AcDb2dVertex
8
COFFR
10
339.788985
20
5.094667
30
0.0
0
VERTEX
100
AcDbVertex
100
AcDb2dVertex
8
COFFR
10
338.45657
20
5.089799
30
0.0
0
VERTEX
100
AcDbVertex
100
AcDb2dVertex
8
COFFR
10
337.124157
20
5.08466
30
0.0
0
VERTEX
100
AcDbVertex
100
AcDb2dVertex
8
COFFR
10
335.791733
20
5.079286
30
0.0
0
VERTEX
100
AcDbVertex
100
AcDb2dVertex
8
COFFR
10
334.459311
20
5.073669
30
0.0
0
VERTEX
100
AcDbVertex
100
AcDb2dVertex
8
COFFR
10
333.12688
20
5.067841
30
0.0
0
VERTEX
100
AcDbVertex
100
AcDb2dVertex
8
COFFR
10
331.794449
20
5.061797
30
0.0
0
VERTEX
100
AcDbVertex
100
AcDb2dVertex
8
COFFR
10
330.462009
20
5.055567
30
0.0
0
VERTEX
100
AcDbVertex
100
AcDb2dVertex
8
COFFR
10
329.129548
20
5.049216
30
0.0
0
VERTEX
100
AcDbVertex
100
AcDb2dVertex
8
COFFR
10
327.79711
20
5.042675
30
0.0
0
VERTEX
100
AcDbVertex
100
AcDb2dVertex
8
COFFR
10
326.464679
20
5.035918
30
0.0
0
VERTEX
100
AcDbVertex
100
AcDb2dVertex
8
COFFR
10
325.132241
20
5.02897
30
0.0
0
VERTEX
100
AcDbVertex
100
AcDb2dVertex
8
COFFR
10
323.799886
20
5.021573
30
0.0
0
VERTEX
100
AcDbVertex
100
AcDb2dVertex
8
COFFR
10
322.467373
20
5.014214
30
0.0
0
VERTEX
100
AcDbVertex
100
AcDb2dVertex
8
COFFR
10
321.134788
20
5.00712
30
0.0
0
VERTEX
100
AcDbVertex
100
AcDb2dVertex
8
COFFR
10
319.80215
20
5.000454
30
0.0
0
VERTEX
100
AcDbVertex
100
AcDb2dVertex
8
COFFR
10
318.469314
20
4.99483
30
0.0
0
VERTEX
100
AcDbVertex
100
AcDb2dVertex
8
COFFR
10
317.136672
20
4.989646
30
0.0
0
VERTEX
100
AcDbVertex
100
AcDb2dVertex
8
COFFR
10
315.804078
20
4.984753
30
0.0
0
VERTEX
100
AcDbVertex
100
AcDb2dVertex
8
COFFR
10
314.471554
20
4.979934
30
0.0
0
VERTEX
100
AcDbVertex
100
AcDb2dVertex
8
COFFR
10
313.139181
20
4.97472
30
0.0
0
VERTEX
100
AcDbVertex
100
AcDb2dVertex
8
COFFR
10
311.806724
20
4.969375
30
0.0
0
VERTEX
100
AcDbVertex
100
AcDb2dVertex
8
COFFR
10
310.474269
20
4.963889
30
0.0
0
VERTEX
100
AcDbVertex
100
AcDb2dVertex
8
COFFR
10
309.141804
20
4.958294
30
0.0
0
VERTEX
100
AcDbVertex
100
AcDb2dVertex
8
COFFR
10
307.809312
20
4.952675
30
0.0
0
VERTEX
100
AcDbVertex
100
AcDb2dVertex
8
COFFR
10
306.476838
20
4.946975
30
0.0
0
VERTEX
100
AcDbVertex
100
AcDb2dVertex
8
COFFR
10
305.144366
20
4.941188
30
0.0
0
VERTEX
100
AcDbVertex
100
AcDb2dVertex
8
COFFR
10
303.811892
20
4.935322
30
0.0
0
VERTEX
100
AcDbVertex
100
AcDb2dVertex
8
COFFR
10
302.479417
20
4.929377
30
0.0
0
VERTEX
100
AcDbVertex
100
AcDb2dVertex
8
COFFR
10
301.146944
20
4.923348
30
0.0
0
VERTEX
100
AcDbVertex
100
AcDb2dVertex
8
COFFR
10
299.814474
20
4.917228
30
0.0
0
VERTEX
100
AcDbVertex
100
AcDb2dVertex
8
COFFR
10
298.482003
20
4.911017
30
0.0
0
VERTEX
100
AcDbVertex
100
AcDb2dVertex
8
COFFR
10
297.149537
20
4.904701
30
0.0
0
VERTEX
100
AcDbVertex
100
AcDb2dVertex
8
COFFR
10
295.817067
20
4.898291
30
0.0
0
VERTEX
100
AcDbVertex
100
AcDb2dVertex
8
COFFR
10
294.484601
20
4.891777
30
0.0
0
VERTEX
100
AcDbVertex
100
AcDb2dVertex
8
COFFR
10
293.152132
20
4.885167
30
0.0
0
VERTEX
100
AcDbVertex
100
AcDb2dVertex
8
COFFR
10
291.819664
20
4.878455
30
0.0
0
VERTEX
100
AcDbVertex
100
AcDb2dVertex
8
COFFR
10
290.487198
20
4.871641
30
0.0
0
VERTEX
100
AcDbVertex
100
AcDb2dVertex
8
COFFR
10
289.154735
20
4.864709
30
0.0
0
VERTEX
100
AcDbVertex
100
AcDb2dVertex
8
COFFR
10
287.822272
20
4.857664
30
0.0
0
VERTEX
100
AcDbVertex
100
AcDb2dVertex
8
COFFR
10
286.489814
20
4.850487
30
0.0
0
VERTEX
100
AcDbVertex
100
AcDb2dVertex
8
COFFR
10
285.157354
20
4.843188
30
0.0
0
VERTEX
100
AcDbVertex
100
AcDb2dVertex
8
COFFR
10
283.824898
20
4.835753
30
0.0
0
VERTEX
100
AcDbVertex
100
AcDb2dVertex
8
COFFR
10
282.492439
20
4.828189
30
0.0
0
VERTEX
100
AcDbVertex
100
AcDb2dVertex
8
COFFR
10
281.159986
20
4.820481
30
0.0
0
VERTEX
100
AcDbVertex
100
AcDb2dVertex
8
COFFR
10
279.827529
20
4.81264
30
0.0
0
VERTEX
100
AcDbVertex
100
AcDb2dVertex
8
COFFR
10
278.495076
20
4.804653
30
0.0
0
VERTEX
100
AcDbVertex
100
AcDb2dVertex
8
COFFR
10
277.16262
20
4.796528
30
0.0
0
VERTEX
100
AcDbVertex
100
AcDb2dVertex
8
COFFR
10
275.830173
20
4.78824
30
0.0
0
VERTEX
100
AcDbVertex
100
AcDb2dVertex
8
COFFR
10
274.497717
20
4.779815
30
0.0
0
VERTEX
100
AcDbVertex
100
AcDb2dVertex
8
COFFR
10
273.165265
20
4.77124
30
0.0
0
VERTEX
100
AcDbVertex
100
AcDb2dVertex
8
COFFR
10
271.832811
20
4.762523
30
0.0
0
VERTEX
100
AcDbVertex
100
AcDb2dVertex
8
COFFR
10
270.500343
20
4.753707
30
0.0
0
VERTEX
100
AcDbVertex
100
AcDb2dVertex
8
COFFR
10
269.167909
20
4.744688
30
0.0
0
VERTEX
100
AcDbVertex
100
AcDb2dVertex
8
COFFR
10
267.835497
20
4.735394
30
0.0
0
VERTEX
100
AcDbVertex
100
AcDb2dVertex
8
COFFR
10
266.503095
20
4.725799
30
0.0
0
VERTEX
100
AcDbVertex
100
AcDb2dVertex
8
COFFR
10
265.170746
20
4.715733
30
0.0
0
VERTEX
100
AcDbVertex
100
AcDb2dVertex
8
COFFR
10
263.838344
20
4.705364
30
0.0
0
VERTEX
100
AcDbVertex
100
AcDb2dVertex
8
COFFR
10
262.505935
20
4.694714
30
0.0
0
VERTEX
100
AcDbVertex
100
AcDb2dVertex
8
COFFR
10
261.173503
20
4.683851
30
0.0
0
VERTEX
100
AcDbVertex
100
AcDb2dVertex
8
COFFR
10
259.841038
20
4.672881
30
0.0
0
VERTEX
100
AcDbVertex
100
AcDb2dVertex
8
COFFR
10
258.50859
20
4.661751
30
0.0
0
VERTEX
100
AcDbVertex
100
AcDb2dVertex
8
COFFR
10
257.176146
20
4.650446
30
0.0
0
VERTEX
100
AcDbVertex
100
AcDb2dVertex
8
COFFR
10
255.8437
20
4.638972
30
0.0
0
VERTEX
100
AcDbVertex
100
AcDb2dVertex
8
COFFR
10
254.511266
20
4.627294
30
0.0
0
VERTEX
100
AcDbVertex
100
AcDb2dVertex
8
COFFR
10
253.178823
20
4.615439
30
0.0
0
VERTEX
100
AcDbVertex
100
AcDb2dVertex
8
COFFR
10
251.846385
20
4.603391
30
0.0
0
VERTEX
100
AcDbVertex
100
AcDb2dVertex
8
COFFR
10
250.513944
20
4.591162
30
0.0
0
VERTEX
100
AcDbVertex
100
AcDb2dVertex
8
COFFR
10
249.181508
20
4.578734
30
0.0
0
VERTEX
100
AcDbVertex
100
AcDb2dVertex
8
COFFR
10
247.849065
20
4.566128
30
0.0
0
VERTEX
100
AcDbVertex
100
AcDb2dVertex
8
COFFR
10
246.516626
20
4.553333
30
0.0
0
VERTEX
100
AcDbVertex
100
AcDb2dVertex
8
COFFR
10
245.184182
20
4.540366
30
0.0
0
VERTEX
100
AcDbVertex
100
AcDb2dVertex
8
COFFR
10
243.851738
20
4.527225
30
0.0
0
VERTEX
100
AcDbVertex
100
AcDb2dVertex
8
COFFR
10
242.519293
20
4.513912
30
0.0
0
VERTEX
100
AcDbVertex
100
AcDb2dVertex
8
COFFR
10
241.186852
20
4.500416
30
0.0
0
VERTEX
100
AcDbVertex
100
AcDb2dVertex
8
COFFR
10
239.854408
20
4.486746
30
0.0
0
VERTEX
100
AcDbVertex
100
AcDb2dVertex
8
COFFR
10
238.52197
20
4.472886
30
0.0
0
VERTEX
100
AcDbVertex
100
AcDb2dVertex
8
COFFR
10
237.189526
20
4.458852
30
0.0
0
VERTEX
100
AcDbVertex
100
AcDb2dVertex
8
COFFR
10
235.857085
20
4.444635
30
0.0
0
VERTEX
100
AcDbVertex
100
AcDb2dVertex
8
COFFR
10
234.52464
20
4.430248
30
0.0
0
VERTEX
100
AcDbVertex
100
AcDb2dVertex
8
COFFR
10
233.192197
20
4.415684
30
0.0
0
VERTEX
100
AcDbVertex
100
AcDb2dVertex
8
COFFR
10
231.85975
20
4.400954
30
0.0
0
VERTEX
100
AcDbVertex
100
AcDb2dVertex
8
COFFR
10
230.527307
20
4.386048
30
0.0
0
VERTEX
100
AcDbVertex
100
AcDb2dVertex
8
COFFR
10
229.19486
20
4.370978
30
0.0
0
VERTEX
100
AcDbVertex
100
AcDb2dVertex
8
COFFR
10
227.862416
20
4.355733
30
0.0
0
VERTEX
100
AcDbVertex
100
AcDb2dVertex
8
COFFR
10
226.529967
20
4.34033
30
0.0
0
VERTEX
100
AcDbVertex
100
AcDb2dVertex
8
COFFR
10
225.197521
20
4.324762
30
0.0
0
VERTEX
100
AcDbVertex
100
AcDb2dVertex
8
COFFR
10
223.865069
20
4.309043
30
0.0
0
VERTEX
100
AcDbVertex
100
AcDb2dVertex
8
COFFR
10
222.532617
20
4.293174
30
0.0
0
VERTEX
100
AcDbVertex
100
AcDb2dVertex
8
COFFR
10
221.200165
20
4.277157
30
0.0
0
VERTEX
100
AcDbVertex
100
AcDb2dVertex
8
COFFR
10
219.867717
20
4.260981
30
0.0
0
VERTEX
100
AcDbVertex
100
AcDb2dVertex
8
COFFR
10
218.535265
20
4.244656
30
0.0
0
VERTEX
100
AcDbVertex
100
AcDb2dVertex
8
COFFR
10
217.20282
20
4.22816
30
0.0
0
VERTEX
100
AcDbVertex
100
AcDb2dVertex
8
COFFR
10
215.870364
20
4.211526
30
0.0
0
VERTEX
100
AcDbVertex
100
AcDb2dVertex
8
COFFR
10
214.537908
20
4.194757
30
0.0
0
VERTEX
100
AcDbVertex
100
AcDb2dVertex
8
COFFR
10
213.205445
20
4.177871
30
0.0
0
VERTEX
100
AcDbVertex
100
AcDb2dVertex
8
COFFR
10
211.872977
20
4.160888
30
0.0
0
VERTEX
100
AcDbVertex
100
AcDb2dVertex
8
COFFR
10
210.540511
20
4.143798
30
0.0
0
VERTEX
100
AcDbVertex
100
AcDb2dVertex
8
COFFR
10
209.208049
20
4.126592
30
0.0
0
VERTEX
100
AcDbVertex
100
AcDb2dVertex
8
COFFR
10
207.875585
20
4.109273
30
0.0
0
VERTEX
100
AcDbVertex
100
AcDb2dVertex
8
COFFR
10
206.543127
20
4.091826
30
0.0
0
VERTEX
100
AcDbVertex
100
AcDb2dVertex
8
COFFR
10
205.210663
20
4.074267
30
0.0
0
VERTEX
100
AcDbVertex
100
AcDb2dVertex
8
COFFR
10
203.8782
20
4.056591
30
0.0
0
VERTEX
100
AcDbVertex
100
AcDb2dVertex
8
COFFR
10
202.545734
20
4.038811
30
0.0
0
VERTEX
100
AcDbVertex
100
AcDb2dVertex
8
COFFR
10
201.213268
20
4.020925
30
0.0
0
VERTEX
100
AcDbVertex
100
AcDb2dVertex
8
COFFR
10
199.880799
20
4.002942
30
0.0
0
VERTEX
100
AcDbVertex
100
AcDb2dVertex
8
COFFR
10
198.548331
20
3.984862
30
0.0
0
VERTEX
100
AcDbVertex
100
AcDb2dVertex
8
COFFR
10
197.215859
20
3.966696
30
0.0
0
VERTEX
100
AcDbVertex
100
AcDb2dVertex
8
COFFR
10
195.883386
20
3.948444
30
0.0
0
VERTEX
100
AcDbVertex
100
AcDb2dVertex
8
COFFR
10
194.55091
20
3.930116
30
0.0
0
VERTEX
100
AcDbVertex
100
AcDb2dVertex
8
COFFR
10
193.218434
20
3.911714
30
0.0
0
VERTEX
100
AcDbVertex
100
AcDb2dVertex
8
COFFR
10
191.885955
20
3.893248
30
0.0
0
VERTEX
100
AcDbVertex
100
AcDb2dVertex
8
COFFR
10
190.553474
20
3.874722
30
0.0
0
VERTEX
100
AcDbVertex
100
AcDb2dVertex
8
COFFR
10
189.220992
20
3.856143
30
0.0
0
VERTEX
100
AcDbVertex
100
AcDb2dVertex
8
COFFR
10
187.888508
20
3.837513
30
0.0
0
VERTEX
100
AcDbVertex
100
AcDb2dVertex
8
COFFR
10
186.556022
20
3.818841
30
0.0
0
VERTEX
100
AcDbVertex
100
AcDb2dVertex
8
COFFR
10
185.223534
20
3.80013
30
0.0
0
VERTEX
100
AcDbVertex
100
AcDb2dVertex
8
COFFR
10
183.891044
20
3.781389
30
0.0
0
VERTEX
100
AcDbVertex
100
AcDb2dVertex
8
COFFR
10
182.558551
20
3.762626
30
0.0
0
VERTEX
100
AcDbVertex
100
AcDb2dVertex
8
COFFR
10
181.226056
20
3.743848
30
0.0
0
VERTEX
100
AcDbVertex
100
AcDb2dVertex
8
COFFR
10
179.893557
20
3.725066
30
0.0
0
VERTEX
100
AcDbVertex
100
AcDb2dVertex
8
COFFR
10
178.561057
20
3.706283
30
0.0
0
VERTEX
100
AcDbVertex
100
AcDb2dVertex
8
COFFR
10
177.228554
20
3.687509
30
0.0
0
VERTEX
100
AcDbVertex
100
AcDb2dVertex
8
COFFR
10
175.89605
20
3.668748
30
0.0
0
VERTEX
100
AcDbVertex
100
AcDb2dVertex
8
COFFR
10
174.563543
20
3.650011
30
0.0
0
VERTEX
100
AcDbVertex
100
AcDb2dVertex
8
COFFR
10
173.231033
20
3.631303
30
0.0
0
VERTEX
100
AcDbVertex
100
AcDb2dVertex
8
COFFR
10
171.898519
20
3.612638
30
0.0
0
VERTEX
100
AcDbVertex
100
AcDb2dVertex
8
COFFR
10
170.566004
20
3.594022
30
0.0
0
VERTEX
100
AcDbVertex
100
AcDb2dVertex
8
COFFR
10
169.233465
20
3.575524
30
0.0
0
VERTEX
100
AcDbVertex
100
AcDb2dVertex
8
COFFR
10
167.900952
20
3.557067
30
0.0
0
VERTEX
100
AcDbVertex
100
AcDb2dVertex
8
COFFR
10
166.568441
20
3.538645
30
0.0
0
VERTEX
100
AcDbVertex
100
AcDb2dVertex
8
COFFR
10
165.235931
20
3.520255
30
0.0
0
VERTEX
100
AcDbVertex
100
AcDb2dVertex
8
COFFR
10
163.90348
20
3.50171
30
0.0
0
VERTEX
100
AcDbVertex
100
AcDb2dVertex
8
COFFR
10
162.570914
20
3.483371
30
0.0
0
VERTEX
100
AcDbVertex
100
AcDb2dVertex
8
COFFR
10
161.238288
20
3.465425
30
0.0
0
VERTEX
100
AcDbVertex
100
AcDb2dVertex
8
COFFR
10
159.905626
20
3.44798
30
0.0
0
VERTEX
100
AcDbVertex
100
AcDb2dVertex
8
COFFR
10
158.572806
20
3.431528
30
0.0
0
VERTEX
100
AcDbVertex
100
AcDb2dVertex
8
COFFR
10
157.240141
20
3.415587
30
0.0
0
VERTEX
100
AcDbVertex
100
AcDb2dVertex
8
COFFR
10
155.907507
20
3.40006
30
0.0
0
VERTEX
100
AcDbVertex
100
AcDb2dVertex
8
COFFR
10
154.574932
20
3.384768
30
0.0
0
VERTEX
100
AcDbVertex
100
AcDb2dVertex
8
COFFR
10
153.242467
20
3.369364
30
0.0
0
VERTEX
100
AcDbVertex
100
AcDb2dVertex
8
COFFR
10
151.90994
20
3.354046
30
0.0
0
VERTEX
100
AcDbVertex
100
AcDb2dVertex
8
COFFR
10
150.577406
20
3.338834
30
0.0
0
VERTEX
100
AcDbVertex
100
AcDb2dVertex
8
COFFR
10
149.244868
20
3.32374
30
0.0
0
VERTEX
100
AcDbVertex
100
AcDb2dVertex
8
COFFR
10
147.912297
20
3.308865
30
0.0
0
VERTEX
100
AcDbVertex
100
AcDb2dVertex
8
COFFR
10
146.579747
20
3.294144
30
0.0
0
VERTEX
100
AcDbVertex
100
AcDb2dVertex
8
COFFR
10
145.247191
20
3.279597
30
0.0
0
VERTEX
100
AcDbVertex
100
AcDb2dVertex
8
COFFR
10
143.914638
20
3.265216
30
0.0
0
VERTEX
100
AcDbVertex
100
AcDb2dVertex
8
COFFR
10
142.582077
20
3.251023
30
0.0
0
VERTEX
100
AcDbVertex
100
AcDb2dVertex
8
COFFR
10
141.249518
20
3.237012
30
0.0
0
VERTEX
100
AcDbVertex
100
AcDb2dVertex
8
COFFR
10
139.916949
20
3.223215
30
0.0
0
VERTEX
100
AcDbVertex
100
AcDb2dVertex
8
COFFR
10
138.584383
20
3.209625
30
0.0
0
VERTEX
100
AcDbVertex
100
AcDb2dVertex
8
COFFR
10
137.251804
20
3.196279
30
0.0
0
VERTEX
100
AcDbVertex
100
AcDb2dVertex
8
COFFR
10
135.91923
20
3.183164
30
0.0
0
VERTEX
100
AcDbVertex
100
AcDb2dVertex
8
COFFR
10
134.586645
20
3.170311
30
0.0
0
VERTEX
100
AcDbVertex
100
AcDb2dVertex
8
COFFR
10
133.254063
20
3.157712
30
0.0
0
VERTEX
100
AcDbVertex
100
AcDb2dVertex
8
COFFR
10
131.921471
20
3.145398
30
0.0
0
VERTEX
100
AcDbVertex
100
AcDb2dVertex
8
COFFR
10
130.58888
20
3.133367
30
0.0
0
VERTEX
100
AcDbVertex
100
AcDb2dVertex
8
COFFR
10
129.256275
20
3.121662
30
0.0
0
VERTEX
100
AcDbVertex
100
AcDb2dVertex
8
COFFR
10
127.923663
20
3.110304
30
0.0
0
VERTEX
100
AcDbVertex
100
AcDb2dVertex
8
COFFR
10
126.591062
20
3.099259
30
0.0
0
VERTEX
100
AcDbVertex
100
AcDb2dVertex
8
COFFR
10
125.258438
20
3.088599
30
0.0
0
VERTEX
100
AcDbVertex
100
AcDb2dVertex
8
COFFR
10
123.925807
20
3.078346
30
0.0
0
VERTEX
100
AcDbVertex
100
AcDb2dVertex
8
COFFR
10
122.593168
20
3.068523
30
0.0
0
VERTEX
100
AcDbVertex
100
AcDb2dVertex
8
COFFR
10
121.260545
20
3.059082
30
0.0
0
VERTEX
100
AcDbVertex
100
AcDb2dVertex
8
COFFR
10
119.927892
20
3.050116
30
0.0
0
VERTEX
100
AcDbVertex
100
AcDb2dVertex
8
COFFR
10
118.595229
20
3.041654
30
0.0
0
VERTEX
100
AcDbVertex
100
AcDb2dVertex
8
COFFR
10
117.26255
20
3.033746
30
0.0
0
VERTEX
100
AcDbVertex
100
AcDb2dVertex
8
COFFR
10
115.929882
20
3.026361
30
0.0
0
VERTEX
100
AcDbVertex
100
AcDb2dVertex
8
COFFR
10
114.597197
20
3.019547
30
0.0
0
VERTEX
100
AcDbVertex
100
AcDb2dVertex
8
COFFR
10
113.264518
20
3.013289
30
0.0
0
VERTEX
100
AcDbVertex
100
AcDb2dVertex
8
COFFR
10
111.931855
20
3.007536
30
0.0
0
VERTEX
100
AcDbVertex
100
AcDb2dVertex
8
COFFR
10
110.599248
20
3.002117
30
0.0
0
VERTEX
100
AcDbVertex
100
AcDb2dVertex
8
COFFR
10
109.266479
20
2.997529
30
0.0
0
VERTEX
100
AcDbVertex
100
AcDb2dVertex
8
COFFR
10
107.933581
20
2.994179
30
0.0
0
VERTEX
100
AcDbVertex
100
AcDb2dVertex
8
COFFR
10
106.600547
20
2.992483
30
0.0
0
VERTEX
100
AcDbVertex
100
AcDb2dVertex
8
COFFR
10
105.26753
20
2.992577
30
0.0
0
VERTEX
100
AcDbVertex
100
AcDb2dVertex
8
COFFR
10
103.935559
20
2.994309
30
0.0
0
VERTEX
100
AcDbVertex
100
AcDb2dVertex
8
COFFR
10
102.603447
20
2.997246
30
0.0
0
VERTEX
100
AcDbVertex
100
AcDb2dVertex
8
COFFR
10
101.271199
20
3.000965
30
0.0
0
VERTEX
100
AcDbVertex
100
AcDb2dVertex
8
COFFR
10
99.938788
20
3.004959
30
0.0
0
VERTEX
100
AcDbVertex
100
AcDb2dVertex
8
COFFR
10
98.606456
20
3.009473
30
0.0
0
VERTEX
100
AcDbVertex
100
AcDb2dVertex
8
COFFR
10
97.27417
20
3.014651
30
0.0
0
VERTEX
100
AcDbVertex
100
AcDb2dVertex
8
COFFR
10
95.941922
20
3.02061
30
0.0
0
VERTEX
100
AcDbVertex
100
AcDb2dVertex
8
COFFR
10
94.609675
20
3.027353
30
0.0
0
VERTEX
100
AcDbVertex
100
AcDb2dVertex
8
COFFR
10
93.277473
20
3.035022
30
0.0
0
VERTEX
100
AcDbVertex
100
AcDb2dVertex
8
COFFR
10
91.945285
20
3.043658
30
0.0
0
VERTEX
100
AcDbVertex
100
AcDb2dVertex
8
COFFR
10
90.613102
20
3.053278
30
0.0
0
VERTEX
100
AcDbVertex
100
AcDb2dVertex
8
COFFR
10
89.280859
20
3.063694
30
0.0
0
VERTEX
100
AcDbVertex
100
AcDb2dVertex
8
COFFR
10
87.948756
20
3.07534
30
0.0
0
VERTEX
100
AcDbVertex
100
AcDb2dVertex
8
COFFR
10
86.616729
20
3.088454
30
0.0
0
VERTEX
100
AcDbVertex
100
AcDb2dVertex
8
COFFR
10
85.284814
20
3.10338
30
0.0
0
VERTEX
100
AcDbVertex
100
AcDb2dVertex
8
COFFR
10
83.952946
20
3.120266
30
0.0
0
VERTEX
100
AcDbVertex
100
AcDb2dVertex
8
COFFR
10
82.620848
20
3.138398
30
0.0
0
VERTEX
100
AcDbVertex
100
AcDb2dVertex
8
COFFR
10
81.28845
20
3.156848
30
0.0
0
VERTEX
100
AcDbVertex
100
AcDb2dVertex
8
COFFR
10
79.955746
20
3.174666
30
0.0
0
VERTEX
100
AcDbVertex
100
AcDb2dVertex
8
COFFR
10
78.622777
20
3.191031
30
0.0
0
VERTEX
100
AcDbVertex
100
AcDb2dVertex
8
COFFR
10
77.290224
20
3.207229
30
0.0
0
VERTEX
100
AcDbVertex
100
AcDb2dVertex
8
COFFR
10
75.958151
20
3.22475
30
0.0
0
VERTEX
100
AcDbVertex
100
AcDb2dVertex
8
COFFR
10
74.62655
20
3.245058
30
0.0
0
VERTEX
100
AcDbVertex
100
AcDb2dVertex
8
COFFR
10
73.295229
20
3.269021
30
0.0
0
VERTEX
100
AcDbVertex
100
AcDb2dVertex
8
COFFR
10
71.964059
20
3.297109
30
0.0
0
VERTEX
100
AcDbVertex
100
AcDb2dVertex
8
COFFR
10
70.632892
20
3.32933
30
0.0
0
VERTEX
100
AcDbVertex
100
AcDb2dVertex
8
COFFR
10
69.301758
20
3.365785
30
0.0
0
VERTEX
100
AcDbVertex
100
AcDb2dVertex
8
COFFR
10
67.970405
20
3.405797
30
0.0
0
VERTEX
100
AcDbVertex
100
AcDb2dVertex
8
COFFR
10
66.63937
20
3.45035
30
0.0
0
VERTEX
100
AcDbVertex
100
AcDb2dVertex
8
COFFR
10
65.308431
20
3.499742
30
0.0
0
VERTEX
100
AcDbVertex
100
AcDb2dVertex
8
COFFR
10
63.977588
20
3.554271
30
0.0
0
VERTEX
100
AcDbVertex
100
AcDb2dVertex
8
COFFR
10
62.646583
20
3.613435
30
0.0
0
VERTEX
100
AcDbVertex
100
AcDb2dVertex
8
COFFR
10
61.31579
20
3.677891
30
0.0
0
VERTEX
100
AcDbVertex
100
AcDb2dVertex
8
COFFR
10
59.984976
20
3.747573
30
0.0
0
VERTEX
100
AcDbVertex
100
AcDb2dVertex
8
COFFR
10
58.654057
20
3.82216
30
0.0
0
VERTEX
100
AcDbVertex
100
AcDb2dVertex
8
COFFR
10
57.322706
20
3.900312
30
0.0
0
VERTEX
100
AcDbVertex
100
AcDb2dVertex
8
COFFR
10
55.992261
20
3.984829
30
0.0
0
VERTEX
100
AcDbVertex
100
AcDb2dVertex
8
COFFR
10
54.662418
20
4.077579
30
0.0
0
VERTEX
100
AcDbVertex
100
AcDb2dVertex
8
COFFR
10
53.33325
20
4.180649
30
0.0
0
VERTEX
100
AcDbVertex
100
AcDb2dVertex
8
COFFR
10
52.004267
20
4.294621
30
0.0
0
VERTEX
100
AcDbVertex
100
AcDb2dVertex
8
COFFR
10
50.674587
20
4.417341
30
0.0
0
VERTEX
100
AcDbVertex
100
AcDb2dVertex
8
COFFR
10
49.343689
20
4.545045
30
0.0
0
VERTEX
100
AcDbVertex
100
AcDb2dVertex
8
COFFR
10
48.011535
20
4.673839
30
0.0
0
VERTEX
100
AcDbVertex
100
AcDb2dVertex
8
COFFR
10
46.678134
20
4.799856
30
0.0
0
VERTEX
100
AcDbVertex
100
AcDb2dVertex
8
COFFR
10
45.345766
20
4.92627
30
0.0
0
VERTEX
100
AcDbVertex
100
AcDb2dVertex
8
COFFR
10
44.014419
20
5.056242
30
0.0
0
VERTEX
100
AcDbVertex
100
AcDb2dVertex
8
COFFR
10
42.683975
20
5.192578
30
0.0
0
VERTEX
100
AcDbVertex
100
AcDb2dVertex
8
COFFR
10
41.354034
20
5.336841
30
0.0
0
VERTEX
100
AcDbVertex
100
AcDb2dVertex
8
COFFR
10
40.024096
20
5.489046
30
0.0
0
VERTEX
100
AcDbVertex
100
AcDb2dVertex
8
COFFR
10
38.693748
20
5.647931
30
0.0
0
VERTEX
100
AcDbVertex
100
AcDb2dVertex
8
COFFR
10
37.363338
20
5.813299
30
0.0
0
VERTEX
100
AcDbVertex
100
AcDb2dVertex
8
COFFR
10
36.032798
20
5.984745
30
0.0
0
VERTEX
100
AcDbVertex
100
AcDb2dVertex
8
COFFR
10
34.700765
20
6.157666
30
0.0
0
VERTEX
100
AcDbVertex
100
AcDb2dVertex
8
COFFR
10
33.367129
20
6.327095
30
0.0
0
VERTEX
100
AcDbVertex
100
AcDb2dVertex
8
COFFR
10
32.032761
20
6.49074
30
0.0
0
VERTEX
100
AcDbVertex
100
AcDb2dVertex
8
COFFR
10
30.693749
20
6.634266
30
0.0
0
VERTEX
100
AcDbVertex
100
AcDb2dVertex
8
COFFR
10
29.361275
20
6.777763
30
0.0
0
VERTEX
100
AcDbVertex
100
AcDb2dVertex
8
COFFR
10
28.031606
20
6.929997
30
0.0
0
VERTEX
100
AcDbVertex
100
AcDb2dVertex
8
COFFR
10
26.704347
20
7.098439
30
0.0
0
VERTEX
100
AcDbVertex
100
AcDb2dVertex
8
COFFR
10
25.385189
20
7.308079
30
0.0
0
VERTEX
100
AcDbVertex
100
AcDb2dVertex
8
COFFR
10
24.05916
20
7.537912
30
0.0
0
VERTEX
100
AcDbVertex
100
AcDb2dVertex
8
COFFR
10
22.733309
20
7.788349
30
0.0
0
VERTEX
100
AcDbVertex
100
AcDb2dVertex
8
COFFR
10
21.407759
20
8.060322
30
0.0
0
VERTEX
100
AcDbVertex
100
AcDb2dVertex
8
COFFR
10
20.083578
20
8.358043
30
0.0
0
SEQEND
0
POLYLINE
5
 503
100
AcDbEntity
8
COFFR
66
 1
100
AcDb2dPolyline
70
 0
0
VERTEX
100
AcDbVertex
100
AcDb2dVertex
8
COFFR
10
525.005
20
3.89008
30
0.0
0
VERTEX
100
AcDbVertex
100
AcDb2dVertex
8
COFFR
10
533.0
20
3.4112
30
0.0
0
SEQEND
0
POLYLINE
5
 502
100
AcDbEntity
8
AXIS
66
 1
100
AcDb2dPolyline
70
 0
0
VERTEX
100
AcDbVertex
100
AcDb2dVertex
8
AXIS
10
112.000003
20
76.274369
30
0.0
0
VERTEX
100
AcDbVertex
100
AcDb2dVertex
8
AXIS
10
112.000003
20
0.007537
30
0.0
0
SEQEND
0
POLYLINE
5
 503
100
AcDbEntity
8
LONG
66
 1
100
AcDb2dPolyline
70
 1
0
VERTEX
100
AcDbVertex
100
AcDb2dVertex
8
LONG
10
108.000003
20
73.274369
30
0.0
0
VERTEX
100
AcDbVertex
100
AcDb2dVertex
8
LONG
10
116.000005
20
73.274369
30
0.0
0
VERTEX
100
AcDbVertex
100
AcDb2dVertex
8
LONG
10
116.000005
20
60.274369
30
0.0
0
VERTEX
100
AcDbVertex
100
AcDb2dVertex
8
LONG
10
108.000005
20
60.274369
30
0.0
0
SEQEND
0
POLYLINE
5
 503
100
AcDbEntity
8
LONG
66
 1
100
AcDb2dPolyline
70
 1
0
VERTEX
100
AcDbVertex
100
AcDb2dVertex
8
LONG
10
108.000003
20
3.007537
30
0.0
0
VERTEX
100
AcDbVertex
100
AcDb2dVertex
8
LONG
10
116.000005
20
3.007537
30
0.0
0
VERTEX
100
AcDbVertex
100
AcDb2dVertex
8
LONG
10
116.000005
20
16.007537
30
0.0
0
VERTEX
100
AcDbVertex
100
AcDb2dVertex
8
LONG
10
108.000005
20
16.007537
30
0.0
0
SEQEND
0
POLYLINE
5
 502
100
AcDbEntity
8
AXIS
66
 1
100
AcDb2dPolyline
70
 0
0
VERTEX
100
AcDbVertex
100
AcDb2dVertex
8
AXIS
10
324.999994
20
58.279005
30
0.0
0
VERTEX
100
AcDbVertex
100
AcDb2dVertex
8
AXIS
10
324.999994
20
2.028971
30
0.0
0
SEQEND
0
POLYLINE
5
 503
100
AcDbEntity
8
LONG
66
 1
100
AcDb2dPolyline
70
 1
0
VERTEX
100
AcDbVertex
100
AcDb2dVertex
8
LONG
10
320.999994
20
55.279005
30
0.0
0
VERTEX
100
AcDbVertex
100
AcDb2dVertex
8
LONG
10
328.999996
20
55.279005
30
0.0
0
VERTEX
100
AcDbVertex
100
AcDb2dVertex
8
LONG
10
328.999996
20
42.279005
30
0.0
0
VERTEX
100
AcDbVertex
100
AcDb2dVertex
8
LONG
10
320.999996
20
42.279005
30
0.0
0
SEQEND
0
POLYLINE
5
 503
100
AcDbEntity
8
LONG
66
 1
100
AcDb2dPolyline
70
 1
0
VERTEX
100
AcDbVertex
100
AcDb2dVertex
8
LONG
10
320.999994
20
5.028971
30
0.0
0
VERTEX
100
AcDbVertex
100
AcDb2dVertex
8
LONG
10
328.999996
20
5.028971
30
0.0
0
VERTEX
100
AcDbVertex
100
AcDb2dVertex
8
LONG
10
328.999996
20
18.028971
30
0.0
0
VERTEX
100
AcDbVertex
100
AcDb2dVertex
8
LONG
10
320.999996
20
18.028971
30
0.0
0
SEQEND
0
POLYLINE
5
 502
100
AcDbEntity
8
AXIS
66
 1
100
AcDb2dPolyline
70
 0
0
VERTEX
100
AcDbVertex
100
AcDb2dVertex
8
AXIS
10
448.999996
20
27.129757
30
0.0
0
VERTEX
100
AcDbVertex
100
AcDb2dVertex
8
AXIS
10
448.999996
20
0.944502
30
0.0
0
SEQEND
0
POLYLINE
5
 503
100
AcDbEntity
8
LONG
66
 1
100
AcDb2dPolyline
70
 1
0
VERTEX
100
AcDbVertex
100
AcDb2dVertex
8
LONG
10
445.999996
20
24.129757
30
0.0
0
VERTEX
100
AcDbVertex
100
AcDb2dVertex
8
LONG
10
451.999997
20
24.129757
30
0.0
0
VERTEX
100
AcDbVertex
100
AcDb2dVertex
8
LONG
10
451.999997
20
3.129757
30
0.0
0
VERTEX
100
AcDbVertex
100
AcDb2dVertex
8
LONG
10
445.999997
20
3.129757
30
0.0
0
SEQEND
0
CIRCLE
5
 504
100
AcDbEntity
8
TROU
100
AcDbCircle
39
 0
10
65.000015
20
33.916899
30
0.0
40
20.0
0
POLYLINE
5
 502
100
AcDbEntity
8
AXIS
66
 1
100
AcDb2dPolyline
70
 0
0
VERTEX
100
AcDbVertex
100
AcDb2dVertex
8
AXIS
10
45.000015
20
33.916899
30
0.0
0
VERTEX
100
AcDbVertex
100
AcDb2dVertex
8
AXIS
10
84.999983
20
33.916899
30
0.0
0
SEQEND
0
POLYLINE
5
 502
100
AcDbEntity
8
AXIS
66
 1
100
AcDb2dPolyline
70
 0
0
VERTEX
100
AcDbVertex
100
AcDb2dVertex
8
AXIS
10
65.000015
20
23.916899
30
0.0
0
VERTEX
100
AcDbVertex
100
AcDb2dVertex
8
AXIS
10
65.000015
20
43.916899
30
0.0
0
SEQEND
0
CIRCLE
5
 504
100
AcDbEntity
8
TROU
100
AcDbCircle
39
 0
10
213.000004
20
38.487737
30
0.0
40
22.5
0
POLYLINE
5
 502
100
AcDbEntity
8
AXIS
66
 1
100
AcDb2dPolyline
70
 0
0
VERTEX
100
AcDbVertex
100
AcDb2dVertex
8
AXIS
10
190.500004
20
38.487737
30
0.0
0
VERTEX
100
AcDbVertex
100
AcDb2dVertex
8
AXIS
10
235.499998
20
38.487737
30
0.0
0
SEQEND
0
POLYLINE
5
 502
100
AcDbEntity
8
AXIS
66
 1
100
AcDb2dPolyline
70
 0
0
VERTEX
100
AcDbVertex
100
AcDb2dVertex
8
AXIS
10
213.000004
20
27.237737
30
0.0
0
VERTEX
100
AcDbVertex
100
AcDb2dVertex
8
AXIS
10
213.000004
20
49.737737
30
0.0
0
SEQEND
0
CIRCLE
5
 504
100
AcDbEntity
8
TROU
100
AcDbCircle
39
 0
10
274.999993
20
34.729276
30
0.0
40
17.5
0
POLYLINE
5
 502
100
AcDbEntity
8
AXIS
66
 1
100
AcDb2dPolyline
70
 0
0
VERTEX
100
AcDbVertex
100
AcDb2dVertex
8
AXIS
10
257.499993
20
34.729276
30
0.0
0
VERTEX
100
AcDbVertex
100
AcDb2dVertex
8
AXIS
10
292.499996
20
34.729276
30
0.0
0
SEQEND
0
POLYLINE
5
 502
100
AcDbEntity
8
AXIS
66
 1
100
AcDb2dPolyline
70
 0
0
VERTEX
100
AcDbVertex
100
AcDb2dVertex
8
AXIS
10
274.999993
20
25.979276
30
0.0
0
VERTEX
100
AcDbVertex
100
AcDb2dVertex
8
AXIS
10
274.999993
20
43.479276
30
0.0
0
SEQEND
0
CIRCLE
5
 504
100
AcDbEntity
8
TROU
100
AcDbCircle
39
 0
10
150.000015
20
39.211424
30
0.0
40
22.5
0
POLYLINE
5
 502
100
AcDbEntity
8
AXIS
66
 1
100
AcDb2dPolyline
70
 0
0
VERTEX
100
AcDbVertex
100
AcDb2dVertex
8
AXIS
10
127.500015
20
39.211424
30
0.0
0
VERTEX
100
AcDbVertex
100
AcDb2dVertex
8
AXIS
10
172.49999
20
39.211424
30
0.0
0
SEQEND
0
POLYLINE
5
 502
100
AcDbEntity
8
AXIS
66
 1
100
AcDb2dPolyline
70
 0
0
VERTEX
100
AcDbVertex
100
AcDb2dVertex
8
AXIS
10
150.000015
20
27.961424
30
0.0
0
VERTEX
100
AcDbVertex
100
AcDb2dVertex
8
AXIS
10
150.000015
20
50.461424
30
0.0
0
SEQEND
0
ENDSEC
0
EOF
