0
SECTION
2
HEADER
9
$ACADVER
1
AC1004
9
$INSBASE
10
0.0
20
0.0
9
$EXTMIN
10
-10.0
20
-50.0
9
$EXTMAX
10
220.0
20
50.0
9
$LIMMIN
10
-9.184627
20
4.296983
9
$LIMMAX
10
44.815373
20
28.296983
9
$VIEWCTR
10
6.0
20
4.5
9
$VIEWSIZE
40
 9
9
$SNAPMODE
70
 1
9
$SNAPUNIT
10
0.0625
20
0.0625
9
$SNAPBASE
10
0.0
20
0.0
9
$SNAPANG
50
 0
9
$SNAPSTYLE
70
 0
9
$SNAPISOPAIR
70
 0
9
$GRIDMODE
70
 0
9
$GRIDUNIT
10
0.0625
20
0.0625
9
$ORTHOMODE
70
 0
9
$REGENMODE
70
 1
9
$FILLMODE
70
 1
9
$QTEXTMODE
70
 0
9
$DRAGMODE
70
 2
9
$LTSCALE
40
0.44
9
$OSMODE
70
 0
9
$ATTMODE
70
 1
9
$TEXTSIZE
40
0.2
9
$TRACEWID
40
0.05
9
$TEXTSTYLE
7
STANDARD
9
$CLAYER
8
LAYER01
9
$CELTYPE
6
CONTINUOUS
9
$CECOLOR
62
 7
9
$DIMSCALE
40
 1
9
$DIMASZ
40
0.18
9
$DIMEXO
40
0.0625
9
$DIMDLI
40
0.38
9
$DIMRND
40
 0
9
$DIMDLE
40
 0
9
$DIMEXE
40
0.18
9
$DIMTP
40
 0
9
$DIMTM
40
 0
9
$DIMTXT
40
0.18
9
$DIMCEN
40
0.09
9
$DIMTSZ
40
 0
9
$DIMTOL
70
 0
9
$DIMLIM
70
 0
9
$DIMTIH
70
 1
9
$DIMTOH
70
 1
9
$DIMSE1
70
 0
9
$DIMSE2
70
 0
9
$DIMTAD
70
 0
9
$DIMZIN
70
 0
9
$DIMBLK
1

9
$DIMASO
70
 1
9
$DIMSHO
70
 1
9
$DIMPOST
1

9
$DIMAPOST
1

9
$DIMALT
70
 0
9
$DIMALTD
70
 2
9
$DIMALTF
40
25.4
9
$DIMLFAC
40
 1
9
$LUNITS
70
 2
9
$LUPREC
70
 4
9
$AXISMODE
70
 0
9
$AXISUNIT
10
0.0
20
0.0
9
$SKETCHINC
40
0.1
9
$FILLETRAD
40
0.125
9
$AUNITS
70
 0
9
$AUPREC
70
 0
9
$MENU
1
acad
9
$ELEVATION
40
 0
9
$THICKNESS
40
 0
9
$VIEWDIR
10
0.0
20
0.0
30
1.0
9
$LIMCHECK
70
 0
9
$BLIPMODE
70
 1
9
$CHAMFERA
40
0.5
9
$CHAMFERB
40
0.5
9
$FASTZOOM
70
 1
9
$SKPOLY
70
 0
9
$TDCREATE
40
 0
9
$TDUPDATE
40
 0
9
$TDINDWG
40
 0
9
$TDUSRTIMER
40
 0
9
$USRTIMER
70
 1
9
$ANGBASE
50
 0
9
$ANGDIR
70
 0
9
$PDMODE
70
 0
9
$PDSIZE
40
 0
9
$PLINEWID
40
0.008
9
$COORDS
70
 2
9
$SPLFRAME
70
 0
9
$SPLINESEGS
70
 10
9
$ATTDIA
70
 0
9
$ATTREQ
70
 1
9
$USERI1
70
 0
9
$USERI2
70
 0
9
$USERI3
70
 0
9
$USERI4
70
 0
9
$USERI5
70
 0
9
$USERR1
40
 0
9
$USERR2
40
 0
9
$USERR3
40
 0
9
$USERR4
40
 0
9
$USERR5
40
 0
0
ENDSEC
0
SECTION
2
TABLES
0
TABLE
2
VPORT
5
 10
100
AcDbSymbolTable
70
 10
0
VPORT
5
 11
100
AcDbSymbolTableRecord
100
AcDbViewportTableRecord
2
*ACTIVE
70
 0
10
0.0
20
0.0
11
2.0
21
2.0
12
0.0
22
0.0
13
0.0
23
0.0
14
0.0
24
0.0
15
0.0
25
0.0
16
0.0
26
0.0
36
0.0
17
0.0
27
0.0
37
0.0
40
0.0
41
0.0
42
0.0
43
0.0
44
0.0
50
0.0
51
0.0
71
 0
72
 0
73
 0
74
 0
75
 0
76
 0
77
 0
78
 0
0
ENDTAB
0
TABLE
2
LTYPE
5
 50
100
AcDbSymbolTable
70
10
0
LTYPE
5
 100
100
AcDbSymbolTableRecord
100
AcDbLinetypeTableRecord
2
CONT
70
 0
3
Solid Line __________
72
 65
73
 0
40
0.0
0
LTYPE
5
 101
100
AcDbSymbolTableRecord
100
AcDbLinetypeTableRecord
2
HIDDEN
70
 0
3
Cache __ __ __ __ __ __ __
72
 65
73
 2
40
9.525
49
6.35
49
-3.175
0
LTYPE
5
 102
100
AcDbSymbolTableRecord
100
AcDbLinetypeTableRecord
2
AXIS
70
 0
3
Centre ____ _ ____ _ ____
72
 65
73
 4
40
50.8
49
31.75
49
-6.35
49
6.35
49
-6.35
0
ENDTAB
0
TABLE
2
LAYER
5
 25
100
AcDbSymbolTable
70
10
0
LAYER
5
 30
100
AcDbSymbolTableRecord
100
AcDbLayerTableRecord
2
Layer01
70
 0
62
 7
6
CONT
0
LAYER
5
 31
100
AcDbSymbolTableRecord
100
AcDbLayerTableRecord
2
TALON
70
 0
62
 10
6
CONT
0
LAYER
5
 32
100
AcDbSymbolTableRecord
100
AcDbLayerTableRecord
2
AXIS
70
 0
62
 10
6
AXIS
0
LAYER
5
 33
100
AcDbSymbolTableRecord
100
AcDbLayerTableRecord
2
COFFR
70
 0
62
 180
6
CONT
0
LAYER
5
 34
100
AcDbSymbolTableRecord
100
AcDbLayerTableRecord
2
LONG
70
 0
62
 210
6
CONT
0
LAYER
5
 35
100
AcDbSymbolTableRecord
100
AcDbLayerTableRecord
2
TROU
70
 0
62
 195
6
CONT
0
ENDTAB
0
ENDSEC
0
SECTION
2
ENTITIES
0
POLYLINE
5
 501
100
AcDbEntity
8
Layer01
66
 1
100
AcDb2dPolyline
70
 0
0
VERTEX
100
AcDbVertex
100
AcDb2dVertex
8
Layer01
10
533.0
20
0.0
30
0.0
0
VERTEX
100
AcDbVertex
100
AcDb2dVertex
8
Layer01
10
532.467007
20
0.854661
30
0.0
0
VERTEX
100
AcDbVertex
100
AcDb2dVertex
8
Layer01
10
531.934014
20
1.579072
30
0.0
0
VERTEX
100
AcDbVertex
100
AcDb2dVertex
8
Layer01
10
531.401021
20
2.188291
30
0.0
0
VERTEX
100
AcDbVertex
100
AcDb2dVertex
8
Layer01
10
530.868027
20
2.696272
30
0.0
0
VERTEX
100
AcDbVertex
100
AcDb2dVertex
8
Layer01
10
530.335034
20
3.115898
30
0.0
0
VERTEX
100
AcDbVertex
100
AcDb2dVertex
8
Layer01
10
529.802041
20
3.459022
30
0.0
0
VERTEX
100
AcDbVertex
100
AcDb2dVertex
8
Layer01
10
529.269048
20
3.736511
30
0.0
0
VERTEX
100
AcDbVertex
100
AcDb2dVertex
8
Layer01
10
528.736055
20
3.958278
30
0.0
0
VERTEX
100
AcDbVertex
100
AcDb2dVertex
8
Layer01
10
528.203062
20
4.133328
30
0.0
0
VERTEX
100
AcDbVertex
100
AcDb2dVertex
8
Layer01
10
527.670069
20
4.269794
30
0.0
0
VERTEX
100
AcDbVertex
100
AcDb2dVertex
8
Layer01
10
527.137012
20
4.374991
30
0.0
0
VERTEX
100
AcDbVertex
100
AcDb2dVertex
8
Layer01
10
526.604019
20
4.455406
30
0.0
0
VERTEX
100
AcDbVertex
100
AcDb2dVertex
8
Layer01
10
526.071026
20
4.51681
30
0.0
0
VERTEX
100
AcDbVertex
100
AcDb2dVertex
8
Layer01
10
525.538033
20
4.564252
30
0.0
0
VERTEX
100
AcDbVertex
100
AcDb2dVertex
8
Layer01
10
525.005039
20
4.602104
30
0.0
0
VERTEX
100
AcDbVertex
100
AcDb2dVertex
8
Layer01
10
524.472046
20
4.634108
30
0.0
0
VERTEX
100
AcDbVertex
100
AcDb2dVertex
8
Layer01
10
523.939053
20
4.663411
30
0.0
0
VERTEX
100
AcDbVertex
100
AcDb2dVertex
8
Layer01
10
523.40606
20
4.692606
30
0.0
0
VERTEX
100
AcDbVertex
100
AcDb2dVertex
8
Layer01
10
522.873067
20
4.723772
30
0.0
0
VERTEX
100
AcDbVertex
100
AcDb2dVertex
8
Layer01
10
522.340074
20
4.758512
30
0.0
0
VERTEX
100
AcDbVertex
100
AcDb2dVertex
8
Layer01
10
521.807017
20
4.798001
30
0.0
0
VERTEX
100
AcDbVertex
100
AcDb2dVertex
8
Layer01
10
521.274024
20
4.843002
30
0.0
0
VERTEX
100
AcDbVertex
100
AcDb2dVertex
8
Layer01
10
520.741031
20
4.893936
30
0.0
0
VERTEX
100
AcDbVertex
100
AcDb2dVertex
8
Layer01
10
520.208038
20
4.950905
30
0.0
0
VERTEX
100
AcDbVertex
100
AcDb2dVertex
8
Layer01
10
519.675044
20
5.013731
30
0.0
0
VERTEX
100
AcDbVertex
100
AcDb2dVertex
8
Layer01
10
519.142051
20
5.082002
30
0.0
0
VERTEX
100
AcDbVertex
100
AcDb2dVertex
8
Layer01
10
518.609058
20
5.155107
30
0.0
0
VERTEX
100
AcDbVertex
100
AcDb2dVertex
8
Layer01
10
518.076065
20
5.232275
30
0.0
0
VERTEX
100
AcDbVertex
100
AcDb2dVertex
8
Layer01
10
517.543072
20
5.312619
30
0.0
0
VERTEX
100
AcDbVertex
100
AcDb2dVertex
8
Layer01
10
517.010079
20
5.395174
30
0.0
0
VERTEX
100
AcDbVertex
100
AcDb2dVertex
8
Layer01
10
516.477022
20
5.465908
30
0.0
0
VERTEX
100
AcDbVertex
100
AcDb2dVertex
8
Layer01
10
515.944029
20
5.537811
30
0.0
0
VERTEX
100
AcDbVertex
100
AcDb2dVertex
8
Layer01
10
515.411036
20
5.610866
30
0.0
0
VERTEX
100
AcDbVertex
100
AcDb2dVertex
8
Layer01
10
514.878043
20
5.685048
30
0.0
0
VERTEX
100
AcDbVertex
100
AcDb2dVertex
8
Layer01
10
514.34505
20
5.760334
30
0.0
0
VERTEX
100
AcDbVertex
100
AcDb2dVertex
8
Layer01
10
513.812056
20
5.836698
30
0.0
0
VERTEX
100
AcDbVertex
100
AcDb2dVertex
8
Layer01
10
513.279063
20
5.914116
30
0.0
0
VERTEX
100
AcDbVertex
100
AcDb2dVertex
8
Layer01
10
512.74607
20
5.992565
30
0.0
0
VERTEX
100
AcDbVertex
100
AcDb2dVertex
8
Layer01
10
512.213077
20
6.07202
30
0.0
0
VERTEX
100
AcDbVertex
100
AcDb2dVertex
8
Layer01
10
511.680084
20
6.15246
30
0.0
0
VERTEX
100
AcDbVertex
100
AcDb2dVertex
8
Layer01
10
511.146995
20
6.233874
30
0.0
0
VERTEX
100
AcDbVertex
100
AcDb2dVertex
8
Layer01
10
510.614002
20
6.316212
30
0.0
0
VERTEX
100
AcDbVertex
100
AcDb2dVertex
8
Layer01
10
510.081009
20
6.399466
30
0.0
0
VERTEX
100
AcDbVertex
100
AcDb2dVertex
8
Layer01
10
509.548016
20
6.483613
30
0.0
0
VERTEX
100
AcDbVertex
100
AcDb2dVertex
8
Layer01
10
509.015023
20
6.568632
30
0.0
0
VERTEX
100
AcDbVertex
100
AcDb2dVertex
8
Layer01
10
508.48203
20
6.654501
30
0.0
0
VERTEX
100
AcDbVertex
100
AcDb2dVertex
8
Layer01
10
507.949037
20
6.7412
30
0.0
0
VERTEX
100
AcDbVertex
100
AcDb2dVertex
8
Layer01
10
507.416043
20
6.828707
30
0.0
0
VERTEX
100
AcDbVertex
100
AcDb2dVertex
8
Layer01
10
506.88305
20
6.917001
30
0.0
0
VERTEX
100
AcDbVertex
100
AcDb2dVertex
8
Layer01
10
506.350057
20
7.006062
30
0.0
0
VERTEX
100
AcDbVertex
100
AcDb2dVertex
8
Layer01
10
505.817001
20
7.095881
30
0.0
0
VERTEX
100
AcDbVertex
100
AcDb2dVertex
8
Layer01
10
505.284007
20
7.186416
30
0.0
0
VERTEX
100
AcDbVertex
100
AcDb2dVertex
8
Layer01
10
504.751014
20
7.277659
30
0.0
0
VERTEX
100
AcDbVertex
100
AcDb2dVertex
8
Layer01
10
504.218021
20
7.369591
30
0.0
0
VERTEX
100
AcDbVertex
100
AcDb2dVertex
8
Layer01
10
503.685028
20
7.462192
30
0.0
0
VERTEX
100
AcDbVertex
100
AcDb2dVertex
8
Layer01
10
503.152035
20
7.555445
30
0.0
0
VERTEX
100
AcDbVertex
100
AcDb2dVertex
8
Layer01
10
502.619042
20
7.64933
30
0.0
0
VERTEX
100
AcDbVertex
100
AcDb2dVertex
8
Layer01
10
502.086049
20
7.743829
30
0.0
0
VERTEX
100
AcDbVertex
100
AcDb2dVertex
8
Layer01
10
501.553055
20
7.838925
30
0.0
0
VERTEX
100
AcDbVertex
100
AcDb2dVertex
8
Layer01
10
501.020062
20
7.9346
30
0.0
0
VERTEX
100
AcDbVertex
100
AcDb2dVertex
8
Layer01
10
500.487006
20
8.030849
30
0.0
0
VERTEX
100
AcDbVertex
100
AcDb2dVertex
8
Layer01
10
499.954012
20
8.127632
30
0.0
0
VERTEX
100
AcDbVertex
100
AcDb2dVertex
8
Layer01
10
499.421019
20
8.224941
30
0.0
0
VERTEX
100
AcDbVertex
100
AcDb2dVertex
8
Layer01
10
498.888026
20
8.32276
30
0.0
0
VERTEX
100
AcDbVertex
100
AcDb2dVertex
8
Layer01
10
498.355033
20
8.421073
30
0.0
0
VERTEX
100
AcDbVertex
100
AcDb2dVertex
8
Layer01
10
497.82204
20
8.519863
30
0.0
0
VERTEX
100
AcDbVertex
100
AcDb2dVertex
8
Layer01
10
497.289047
20
8.619114
30
0.0
0
VERTEX
100
AcDbVertex
100
AcDb2dVertex
8
Layer01
10
496.756054
20
8.71881
30
0.0
0
VERTEX
100
AcDbVertex
100
AcDb2dVertex
8
Layer01
10
496.22306
20
8.818936
30
0.0
0
VERTEX
100
AcDbVertex
100
AcDb2dVertex
8
Layer01
10
495.690067
20
8.919476
30
0.0
0
VERTEX
100
AcDbVertex
100
AcDb2dVertex
8
Layer01
10
495.157011
20
9.020425
30
0.0
0
VERTEX
100
AcDbVertex
100
AcDb2dVertex
8
Layer01
10
494.624018
20
9.121746
30
0.0
0
VERTEX
100
AcDbVertex
100
AcDb2dVertex
8
Layer01
10
494.091024
20
9.223438
30
0.0
0
VERTEX
100
AcDbVertex
100
AcDb2dVertex
8
Layer01
10
493.558031
20
9.325485
30
0.0
0
VERTEX
100
AcDbVertex
100
AcDb2dVertex
8
Layer01
10
493.025038
20
9.427875
30
0.0
0
VERTEX
100
AcDbVertex
100
AcDb2dVertex
8
Layer01
10
492.492045
20
9.530593
30
0.0
0
VERTEX
100
AcDbVertex
100
AcDb2dVertex
8
Layer01
10
491.959052
20
9.633627
30
0.0
0
VERTEX
100
AcDbVertex
100
AcDb2dVertex
8
Layer01
10
491.426059
20
9.736962
30
0.0
0
VERTEX
100
AcDbVertex
100
AcDb2dVertex
8
Layer01
10
490.893066
20
9.840586
30
0.0
0
VERTEX
100
AcDbVertex
100
AcDb2dVertex
8
Layer01
10
490.360072
20
9.944487
30
0.0
0
VERTEX
100
AcDbVertex
100
AcDb2dVertex
8
Layer01
10
489.827016
20
10.048665
30
0.0
0
VERTEX
100
AcDbVertex
100
AcDb2dVertex
8
Layer01
10
489.294023
20
10.153082
30
0.0
0
VERTEX
100
AcDbVertex
100
AcDb2dVertex
8
Layer01
10
488.761029
20
10.257739
30
0.0
0
VERTEX
100
AcDbVertex
100
AcDb2dVertex
8
Layer01
10
488.228036
20
10.362622
30
0.0
0
VERTEX
100
AcDbVertex
100
AcDb2dVertex
8
Layer01
10
487.695043
20
10.46772
30
0.0
0
VERTEX
100
AcDbVertex
100
AcDb2dVertex
8
Layer01
10
487.16205
20
10.573022
30
0.0
0
VERTEX
100
AcDbVertex
100
AcDb2dVertex
8
Layer01
10
486.629057
20
10.678517
30
0.0
0
VERTEX
100
AcDbVertex
100
AcDb2dVertex
8
Layer01
10
486.096064
20
10.784192
30
0.0
0
VERTEX
100
AcDbVertex
100
AcDb2dVertex
8
Layer01
10
485.563071
20
10.890037
30
0.0
0
VERTEX
100
AcDbVertex
100
AcDb2dVertex
8
Layer01
10
485.030078
20
10.996041
30
0.0
0
VERTEX
100
AcDbVertex
100
AcDb2dVertex
8
Layer01
10
484.497021
20
11.102206
30
0.0
0
VERTEX
100
AcDbVertex
100
AcDb2dVertex
8
Layer01
10
483.964028
20
11.208497
30
0.0
0
VERTEX
100
AcDbVertex
100
AcDb2dVertex
8
Layer01
10
483.431035
20
11.314916
30
0.0
0
VERTEX
100
AcDbVertex
100
AcDb2dVertex
8
Layer01
10
482.898041
20
11.421453
30
0.0
0
VERTEX
100
AcDbVertex
100
AcDb2dVertex
8
Layer01
10
482.365048
20
11.528098
30
0.0
0
VERTEX
100
AcDbVertex
100
AcDb2dVertex
8
Layer01
10
481.832055
20
11.634843
30
0.0
0
VERTEX
100
AcDbVertex
100
AcDb2dVertex
8
Layer01
10
481.299062
20
11.741677
30
0.0
0
VERTEX
100
AcDbVertex
100
AcDb2dVertex
8
Layer01
10
480.766069
20
11.848591
30
0.0
0
VERTEX
100
AcDbVertex
100
AcDb2dVertex
8
Layer01
10
480.233076
20
11.955577
30
0.0
0
VERTEX
100
AcDbVertex
100
AcDb2dVertex
8
Layer01
10
479.700083
20
12.062626
30
0.0
0
VERTEX
100
AcDbVertex
100
AcDb2dVertex
8
Layer01
10
479.166994
20
12.169748
30
0.0
0
VERTEX
100
AcDbVertex
100
AcDb2dVertex
8
Layer01
10
478.634001
20
12.276897
30
0.0
0
VERTEX
100
AcDbVertex
100
AcDb2dVertex
8
Layer01
10
478.101008
20
12.384083
30
0.0
0
VERTEX
100
AcDbVertex
100
AcDb2dVertex
8
Layer01
10
477.568015
20
12.4913
30
0.0
0
VERTEX
100
AcDbVertex
100
AcDb2dVertex
8
Layer01
10
477.035022
20
12.598539
30
0.0
0
VERTEX
100
AcDbVertex
100
AcDb2dVertex
8
Layer01
10
476.502028
20
12.705793
30
0.0
0
VERTEX
100
AcDbVertex
100
AcDb2dVertex
8
Layer01
10
475.969035
20
12.813055
30
0.0
0
VERTEX
100
AcDbVertex
100
AcDb2dVertex
8
Layer01
10
475.436042
20
12.920317
30
0.0
0
VERTEX
100
AcDbVertex
100
AcDb2dVertex
8
Layer01
10
474.903049
20
13.027572
30
0.0
0
VERTEX
100
AcDbVertex
100
AcDb2dVertex
8
Layer01
10
474.370056
20
13.134814
30
0.0
0
VERTEX
100
AcDbVertex
100
AcDb2dVertex
8
Layer01
10
473.836999
20
13.24205
30
0.0
0
VERTEX
100
AcDbVertex
100
AcDb2dVertex
8
Layer01
10
473.304006
20
13.349247
30
0.0
0
VERTEX
100
AcDbVertex
100
AcDb2dVertex
8
Layer01
10
472.771013
20
13.456411
30
0.0
0
VERTEX
100
AcDbVertex
100
AcDb2dVertex
8
Layer01
10
472.23802
20
13.563535
30
0.0
0
VERTEX
100
AcDbVertex
100
AcDb2dVertex
8
Layer01
10
471.705027
20
13.670615
30
0.0
0
VERTEX
100
AcDbVertex
100
AcDb2dVertex
8
Layer01
10
471.172034
20
13.777643
30
0.0
0
VERTEX
100
AcDbVertex
100
AcDb2dVertex
8
Layer01
10
470.63904
20
13.884614
30
0.0
0
VERTEX
100
AcDbVertex
100
AcDb2dVertex
8
Layer01
10
470.106047
20
13.991522
30
0.0
0
VERTEX
100
AcDbVertex
100
AcDb2dVertex
8
Layer01
10
469.573054
20
14.098363
30
0.0
0
VERTEX
100
AcDbVertex
100
AcDb2dVertex
8
Layer01
10
469.040061
20
14.205131
30
0.0
0
VERTEX
100
AcDbVertex
100
AcDb2dVertex
8
Layer01
10
468.507004
20
14.311831
30
0.0
0
VERTEX
100
AcDbVertex
100
AcDb2dVertex
8
Layer01
10
467.974011
20
14.418436
30
0.0
0
VERTEX
100
AcDbVertex
100
AcDb2dVertex
8
Layer01
10
467.441018
20
14.524954
30
0.0
0
VERTEX
100
AcDbVertex
100
AcDb2dVertex
8
Layer01
10
466.908025
20
14.631379
30
0.0
0
VERTEX
100
AcDbVertex
100
AcDb2dVertex
8
Layer01
10
466.375032
20
14.737708
30
0.0
0
VERTEX
100
AcDbVertex
100
AcDb2dVertex
8
Layer01
10
465.842039
20
14.843937
30
0.0
0
VERTEX
100
AcDbVertex
100
AcDb2dVertex
8
Layer01
10
465.309045
20
14.950062
30
0.0
0
VERTEX
100
AcDbVertex
100
AcDb2dVertex
8
Layer01
10
464.776052
20
15.056078
30
0.0
0
VERTEX
100
AcDbVertex
100
AcDb2dVertex
8
Layer01
10
464.243059
20
15.161983
30
0.0
0
VERTEX
100
AcDbVertex
100
AcDb2dVertex
8
Layer01
10
463.710066
20
15.267772
30
0.0
0
VERTEX
100
AcDbVertex
100
AcDb2dVertex
8
Layer01
10
463.177009
20
15.373456
30
0.0
0
VERTEX
100
AcDbVertex
100
AcDb2dVertex
8
Layer01
10
462.644016
20
15.479005
30
0.0
0
VERTEX
100
AcDbVertex
100
AcDb2dVertex
8
Layer01
10
462.111023
20
15.584429
30
0.0
0
VERTEX
100
AcDbVertex
100
AcDb2dVertex
8
Layer01
10
461.57803
20
15.689724
30
0.0
0
VERTEX
100
AcDbVertex
100
AcDb2dVertex
8
Layer01
10
461.045037
20
15.794887
30
0.0
0
VERTEX
100
AcDbVertex
100
AcDb2dVertex
8
Layer01
10
460.512044
20
15.899916
30
0.0
0
VERTEX
100
AcDbVertex
100
AcDb2dVertex
8
Layer01
10
459.979051
20
16.004808
30
0.0
0
VERTEX
100
AcDbVertex
100
AcDb2dVertex
8
Layer01
10
459.446057
20
16.10956
30
0.0
0
VERTEX
100
AcDbVertex
100
AcDb2dVertex
8
Layer01
10
458.913064
20
16.214169
30
0.0
0
VERTEX
100
AcDbVertex
100
AcDb2dVertex
8
Layer01
10
458.380071
20
16.318634
30
0.0
0
VERTEX
100
AcDbVertex
100
AcDb2dVertex
8
Layer01
10
457.847014
20
16.422964
30
0.0
0
VERTEX
100
AcDbVertex
100
AcDb2dVertex
8
Layer01
10
457.314021
20
16.527133
30
0.0
0
VERTEX
100
AcDbVertex
100
AcDb2dVertex
8
Layer01
10
456.781028
20
16.63115
30
0.0
0
VERTEX
100
AcDbVertex
100
AcDb2dVertex
8
Layer01
10
456.248035
20
16.735014
30
0.0
0
VERTEX
100
AcDbVertex
100
AcDb2dVertex
8
Layer01
10
455.715042
20
16.838723
30
0.0
0
VERTEX
100
AcDbVertex
100
AcDb2dVertex
8
Layer01
10
455.182049
20
16.942276
30
0.0
0
VERTEX
100
AcDbVertex
100
AcDb2dVertex
8
Layer01
10
454.649056
20
17.04567
30
0.0
0
VERTEX
100
AcDbVertex
100
AcDb2dVertex
8
Layer01
10
454.116063
20
17.148905
30
0.0
0
VERTEX
100
AcDbVertex
100
AcDb2dVertex
8
Layer01
10
453.583069
20
17.25198
30
0.0
0
VERTEX
100
AcDbVertex
100
AcDb2dVertex
8
Layer01
10
453.050076
20
17.354892
30
0.0
0
VERTEX
100
AcDbVertex
100
AcDb2dVertex
8
Layer01
10
452.51702
20
17.457652
30
0.0
0
VERTEX
100
AcDbVertex
100
AcDb2dVertex
8
Layer01
10
451.984026
20
17.560236
30
0.0
0
VERTEX
100
AcDbVertex
100
AcDb2dVertex
8
Layer01
10
451.451033
20
17.662655
30
0.0
0
VERTEX
100
AcDbVertex
100
AcDb2dVertex
8
Layer01
10
450.91804
20
17.764909
30
0.0
0
VERTEX
100
AcDbVertex
100
AcDb2dVertex
8
Layer01
10
450.385047
20
17.866998
30
0.0
0
VERTEX
100
AcDbVertex
100
AcDb2dVertex
8
Layer01
10
449.852054
20
17.96892
30
0.0
0
VERTEX
100
AcDbVertex
100
AcDb2dVertex
8
Layer01
10
449.319061
20
18.070676
30
0.0
0
VERTEX
100
AcDbVertex
100
AcDb2dVertex
8
Layer01
10
448.786068
20
18.172266
30
0.0
0
VERTEX
100
AcDbVertex
100
AcDb2dVertex
8
Layer01
10
448.253074
20
18.27369
30
0.0
0
VERTEX
100
AcDbVertex
100
AcDb2dVertex
8
Layer01
10
447.720081
20
18.374946
30
0.0
0
VERTEX
100
AcDbVertex
100
AcDb2dVertex
8
Layer01
10
447.186993
20
18.476056
30
0.0
0
VERTEX
100
AcDbVertex
100
AcDb2dVertex
8
Layer01
10
446.654
20
18.576982
30
0.0
0
VERTEX
100
AcDbVertex
100
AcDb2dVertex
8
Layer01
10
446.121007
20
18.677741
30
0.0
0
VERTEX
100
AcDbVertex
100
AcDb2dVertex
8
Layer01
10
445.588013
20
18.778334
30
0.0
0
VERTEX
100
AcDbVertex
100
AcDb2dVertex
8
Layer01
10
445.05502
20
18.878762
30
0.0
0
VERTEX
100
AcDbVertex
100
AcDb2dVertex
8
Layer01
10
444.522027
20
18.979024
30
0.0
0
VERTEX
100
AcDbVertex
100
AcDb2dVertex
8
Layer01
10
443.989034
20
19.079121
30
0.0
0
VERTEX
100
AcDbVertex
100
AcDb2dVertex
8
Layer01
10
443.456041
20
19.179055
30
0.0
0
VERTEX
100
AcDbVertex
100
AcDb2dVertex
8
Layer01
10
442.923048
20
19.278824
30
0.0
0
VERTEX
100
AcDbVertex
100
AcDb2dVertex
8
Layer01
10
442.390055
20
19.378431
30
0.0
0
VERTEX
100
AcDbVertex
100
AcDb2dVertex
8
Layer01
10
441.856998
20
19.477886
30
0.0
0
VERTEX
100
AcDbVertex
100
AcDb2dVertex
8
Layer01
10
441.324005
20
19.577168
30
0.0
0
VERTEX
100
AcDbVertex
100
AcDb2dVertex
8
Layer01
10
440.791012
20
19.67629
30
0.0
0
VERTEX
100
AcDbVertex
100
AcDb2dVertex
8
Layer01
10
440.258019
20
19.775253
30
0.0
0
VERTEX
100
AcDbVertex
100
AcDb2dVertex
8
Layer01
10
439.725025
20
19.874058
30
0.0
0
VERTEX
100
AcDbVertex
100
AcDb2dVertex
8
Layer01
10
439.192032
20
19.972706
30
0.0
0
VERTEX
100
AcDbVertex
100
AcDb2dVertex
8
Layer01
10
438.659039
20
20.071199
30
0.0
0
VERTEX
100
AcDbVertex
100
AcDb2dVertex
8
Layer01
10
438.126046
20
20.169538
30
0.0
0
VERTEX
100
AcDbVertex
100
AcDb2dVertex
8
Layer01
10
437.593053
20
20.267724
30
0.0
0
VERTEX
100
AcDbVertex
100
AcDb2dVertex
8
Layer01
10
437.06006
20
20.365759
30
0.0
0
VERTEX
100
AcDbVertex
100
AcDb2dVertex
8
Layer01
10
436.527003
20
20.463787
30
0.0
0
VERTEX
100
AcDbVertex
100
AcDb2dVertex
8
Layer01
10
435.99401
20
20.561645
30
0.0
0
VERTEX
100
AcDbVertex
100
AcDb2dVertex
8
Layer01
10
435.461017
20
20.659338
30
0.0
0
VERTEX
100
AcDbVertex
100
AcDb2dVertex
8
Layer01
10
434.928024
20
20.756858
30
0.0
0
VERTEX
100
AcDbVertex
100
AcDb2dVertex
8
Layer01
10
434.39503
20
20.854199
30
0.0
0
VERTEX
100
AcDbVertex
100
AcDb2dVertex
8
Layer01
10
433.862037
20
20.951358
30
0.0
0
VERTEX
100
AcDbVertex
100
AcDb2dVertex
8
Layer01
10
433.329044
20
21.048332
30
0.0
0
VERTEX
100
AcDbVertex
100
AcDb2dVertex
8
Layer01
10
432.796051
20
21.145122
30
0.0
0
VERTEX
100
AcDbVertex
100
AcDb2dVertex
8
Layer01
10
432.263058
20
21.24173
30
0.0
0
VERTEX
100
AcDbVertex
100
AcDb2dVertex
8
Layer01
10
431.730065
20
21.338164
30
0.0
0
VERTEX
100
AcDbVertex
100
AcDb2dVertex
8
Layer01
10
431.197008
20
21.433917
30
0.0
0
VERTEX
100
AcDbVertex
100
AcDb2dVertex
8
Layer01
10
430.664015
20
21.529547
30
0.0
0
VERTEX
100
AcDbVertex
100
AcDb2dVertex
8
Layer01
10
430.131022
20
21.625122
30
0.0
0
VERTEX
100
AcDbVertex
100
AcDb2dVertex
8
Layer01
10
429.598029
20
21.7207
30
0.0
0
VERTEX
100
AcDbVertex
100
AcDb2dVertex
8
Layer01
10
429.065036
20
21.816338
30
0.0
0
VERTEX
100
AcDbVertex
100
AcDb2dVertex
8
Layer01
10
428.532042
20
21.912094
30
0.0
0
VERTEX
100
AcDbVertex
100
AcDb2dVertex
8
Layer01
10
427.999049
20
22.008023
30
0.0
0
VERTEX
100
AcDbVertex
100
AcDb2dVertex
8
Layer01
10
427.466056
20
22.104178
30
0.0
0
VERTEX
100
AcDbVertex
100
AcDb2dVertex
8
Layer01
10
426.933063
20
22.200606
30
0.0
0
VERTEX
100
AcDbVertex
100
AcDb2dVertex
8
Layer01
10
426.40007
20
22.297349
30
0.0
0
VERTEX
100
AcDbVertex
100
AcDb2dVertex
8
Layer01
10
425.867013
20
22.395242
30
0.0
0
VERTEX
100
AcDbVertex
100
AcDb2dVertex
8
Layer01
10
425.33402
20
22.493442
30
0.0
0
VERTEX
100
AcDbVertex
100
AcDb2dVertex
8
Layer01
10
424.801027
20
22.591922
30
0.0
0
VERTEX
100
AcDbVertex
100
AcDb2dVertex
8
Layer01
10
424.268034
20
22.690636
30
0.0
0
VERTEX
100
AcDbVertex
100
AcDb2dVertex
8
Layer01
10
423.735041
20
22.789536
30
0.0
0
VERTEX
100
AcDbVertex
100
AcDb2dVertex
8
Layer01
10
423.202048
20
22.88857
30
0.0
0
VERTEX
100
AcDbVertex
100
AcDb2dVertex
8
Layer01
10
422.669054
20
22.987683
30
0.0
0
VERTEX
100
AcDbVertex
100
AcDb2dVertex
8
Layer01
10
422.136061
20
23.086819
30
0.0
0
VERTEX
100
AcDbVertex
100
AcDb2dVertex
8
Layer01
10
421.603068
20
23.185924
30
0.0
0
VERTEX
100
AcDbVertex
100
AcDb2dVertex
8
Layer01
10
421.070075
20
23.284944
30
0.0
0
VERTEX
100
AcDbVertex
100
AcDb2dVertex
8
Layer01
10
420.537018
20
23.383322
30
0.0
0
VERTEX
100
AcDbVertex
100
AcDb2dVertex
8
Layer01
10
420.004025
20
23.481543
30
0.0
0
VERTEX
100
AcDbVertex
100
AcDb2dVertex
8
Layer01
10
419.471032
20
23.579616
30
0.0
0
VERTEX
100
AcDbVertex
100
AcDb2dVertex
8
Layer01
10
418.938039
20
23.677537
30
0.0
0
VERTEX
100
AcDbVertex
100
AcDb2dVertex
8
Layer01
10
418.405046
20
23.775309
30
0.0
0
VERTEX
100
AcDbVertex
100
AcDb2dVertex
8
Layer01
10
417.872053
20
23.872934
30
0.0
0
VERTEX
100
AcDbVertex
100
AcDb2dVertex
8
Layer01
10
417.339059
20
23.970417
30
0.0
0
VERTEX
100
AcDbVertex
100
AcDb2dVertex
8
Layer01
10
416.806066
20
24.067766
30
0.0
0
VERTEX
100
AcDbVertex
100
AcDb2dVertex
8
Layer01
10
416.273073
20
24.164988
30
0.0
0
VERTEX
100
AcDbVertex
100
AcDb2dVertex
8
Layer01
10
415.74008
20
24.262092
30
0.0
0
VERTEX
100
AcDbVertex
100
AcDb2dVertex
8
Layer01
10
415.206992
20
24.359231
30
0.0
0
VERTEX
100
AcDbVertex
100
AcDb2dVertex
8
Layer01
10
414.673998
20
24.456242
30
0.0
0
VERTEX
100
AcDbVertex
100
AcDb2dVertex
8
Layer01
10
414.141005
20
24.553143
30
0.0
0
VERTEX
100
AcDbVertex
100
AcDb2dVertex
8
Layer01
10
413.608012
20
24.649934
30
0.0
0
VERTEX
100
AcDbVertex
100
AcDb2dVertex
8
Layer01
10
413.075019
20
24.746613
30
0.0
0
VERTEX
100
AcDbVertex
100
AcDb2dVertex
8
Layer01
10
412.542026
20
24.84318
30
0.0
0
VERTEX
100
AcDbVertex
100
AcDb2dVertex
8
Layer01
10
412.009033
20
24.939635
30
0.0
0
VERTEX
100
AcDbVertex
100
AcDb2dVertex
8
Layer01
10
411.47604
20
25.035977
30
0.0
0
VERTEX
100
AcDbVertex
100
AcDb2dVertex
8
Layer01
10
410.943047
20
25.132205
30
0.0
0
VERTEX
100
AcDbVertex
100
AcDb2dVertex
8
Layer01
10
410.410053
20
25.228319
30
0.0
0
VERTEX
100
AcDbVertex
100
AcDb2dVertex
8
Layer01
10
409.876997
20
25.324331
30
0.0
0
VERTEX
100
AcDbVertex
100
AcDb2dVertex
8
Layer01
10
409.344004
20
25.420216
30
0.0
0
VERTEX
100
AcDbVertex
100
AcDb2dVertex
8
Layer01
10
408.81101
20
25.515985
30
0.0
0
VERTEX
100
AcDbVertex
100
AcDb2dVertex
8
Layer01
10
408.278017
20
25.611638
30
0.0
0
VERTEX
100
AcDbVertex
100
AcDb2dVertex
8
Layer01
10
407.745024
20
25.707174
30
0.0
0
VERTEX
100
AcDbVertex
100
AcDb2dVertex
8
Layer01
10
407.212031
20
25.802592
30
0.0
0
VERTEX
100
AcDbVertex
100
AcDb2dVertex
8
Layer01
10
406.679038
20
25.897893
30
0.0
0
VERTEX
100
AcDbVertex
100
AcDb2dVertex
8
Layer01
10
406.146045
20
25.993075
30
0.0
0
VERTEX
100
AcDbVertex
100
AcDb2dVertex
8
Layer01
10
405.613052
20
26.088138
30
0.0
0
VERTEX
100
AcDbVertex
100
AcDb2dVertex
8
Layer01
10
405.080058
20
26.183082
30
0.0
0
VERTEX
100
AcDbVertex
100
AcDb2dVertex
8
Layer01
10
404.547002
20
26.277916
30
0.0
0
VERTEX
100
AcDbVertex
100
AcDb2dVertex
8
Layer01
10
404.014009
20
26.372618
30
0.0
0
VERTEX
100
AcDbVertex
100
AcDb2dVertex
8
Layer01
10
403.481016
20
26.4672
30
0.0
0
VERTEX
100
AcDbVertex
100
AcDb2dVertex
8
Layer01
10
402.948022
20
26.56166
30
0.0
0
VERTEX
100
AcDbVertex
100
AcDb2dVertex
8
Layer01
10
402.415029
20
26.655998
30
0.0
0
VERTEX
100
AcDbVertex
100
AcDb2dVertex
8
Layer01
10
401.882036
20
26.750214
30
0.0
0
VERTEX
100
AcDbVertex
100
AcDb2dVertex
8
Layer01
10
401.349043
20
26.844308
30
0.0
0
VERTEX
100
AcDbVertex
100
AcDb2dVertex
8
Layer01
10
400.81605
20
26.938279
30
0.0
0
VERTEX
100
AcDbVertex
100
AcDb2dVertex
8
Layer01
10
400.283057
20
27.032127
30
0.0
0
VERTEX
100
AcDbVertex
100
AcDb2dVertex
8
Layer01
10
399.750064
20
27.125851
30
0.0
0
VERTEX
100
AcDbVertex
100
AcDb2dVertex
8
Layer01
10
399.217007
20
27.219462
30
0.0
0
VERTEX
100
AcDbVertex
100
AcDb2dVertex
8
Layer01
10
398.684014
20
27.312937
30
0.0
0
VERTEX
100
AcDbVertex
100
AcDb2dVertex
8
Layer01
10
398.151021
20
27.406288
30
0.0
0
VERTEX
100
AcDbVertex
100
AcDb2dVertex
8
Layer01
10
397.618027
20
27.499515
30
0.0
0
VERTEX
100
AcDbVertex
100
AcDb2dVertex
8
Layer01
10
397.085034
20
27.592617
30
0.0
0
VERTEX
100
AcDbVertex
100
AcDb2dVertex
8
Layer01
10
396.552041
20
27.685595
30
0.0
0
VERTEX
100
AcDbVertex
100
AcDb2dVertex
8
Layer01
10
396.019048
20
27.778448
30
0.0
0
VERTEX
100
AcDbVertex
100
AcDb2dVertex
8
Layer01
10
395.486055
20
27.871175
30
0.0
0
VERTEX
100
AcDbVertex
100
AcDb2dVertex
8
Layer01
10
394.953062
20
27.963778
30
0.0
0
VERTEX
100
AcDbVertex
100
AcDb2dVertex
8
Layer01
10
394.420069
20
28.056255
30
0.0
0
VERTEX
100
AcDbVertex
100
AcDb2dVertex
8
Layer01
10
393.887012
20
28.148621
30
0.0
0
VERTEX
100
AcDbVertex
100
AcDb2dVertex
8
Layer01
10
393.354019
20
28.240849
30
0.0
0
VERTEX
100
AcDbVertex
100
AcDb2dVertex
8
Layer01
10
392.821026
20
28.332951
30
0.0
0
VERTEX
100
AcDbVertex
100
AcDb2dVertex
8
Layer01
10
392.288033
20
28.424926
30
0.0
0
VERTEX
100
AcDbVertex
100
AcDb2dVertex
8
Layer01
10
391.755039
20
28.516773
30
0.0
0
VERTEX
100
AcDbVertex
100
AcDb2dVertex
8
Layer01
10
391.222046
20
28.608492
30
0.0
0
VERTEX
100
AcDbVertex
100
AcDb2dVertex
8
Layer01
10
390.689053
20
28.700083
30
0.0
0
VERTEX
100
AcDbVertex
100
AcDb2dVertex
8
Layer01
10
390.15606
20
28.791545
30
0.0
0
VERTEX
100
AcDbVertex
100
AcDb2dVertex
8
Layer01
10
389.623067
20
28.882878
30
0.0
0
VERTEX
100
AcDbVertex
100
AcDb2dVertex
8
Layer01
10
389.090074
20
28.974081
30
0.0
0
VERTEX
100
AcDbVertex
100
AcDb2dVertex
8
Layer01
10
388.557017
20
29.065161
30
0.0
0
VERTEX
100
AcDbVertex
100
AcDb2dVertex
8
Layer01
10
388.024024
20
29.156101
30
0.0
0
VERTEX
100
AcDbVertex
100
AcDb2dVertex
8
Layer01
10
387.491031
20
29.246909
30
0.0
0
VERTEX
100
AcDbVertex
100
AcDb2dVertex
8
Layer01
10
386.958038
20
29.337587
30
0.0
0
VERTEX
100
AcDbVertex
100
AcDb2dVertex
8
Layer01
10
386.425044
20
29.428134
30
0.0
0
VERTEX
100
AcDbVertex
100
AcDb2dVertex
8
Layer01
10
385.892051
20
29.51855
30
0.0
0
VERTEX
100
AcDbVertex
100
AcDb2dVertex
8
Layer01
10
385.359058
20
29.608835
30
0.0
0
VERTEX
100
AcDbVertex
100
AcDb2dVertex
8
Layer01
10
384.826065
20
29.698988
30
0.0
0
VERTEX
100
AcDbVertex
100
AcDb2dVertex
8
Layer01
10
384.293072
20
29.78901
30
0.0
0
VERTEX
100
AcDbVertex
100
AcDb2dVertex
8
Layer01
10
383.760079
20
29.878901
30
0.0
0
VERTEX
100
AcDbVertex
100
AcDb2dVertex
8
Layer01
10
383.227022
20
29.968679
30
0.0
0
VERTEX
100
AcDbVertex
100
AcDb2dVertex
8
Layer01
10
382.694029
20
30.058313
30
0.0
0
VERTEX
100
AcDbVertex
100
AcDb2dVertex
8
Layer01
10
382.161036
20
30.147815
30
0.0
0
VERTEX
100
AcDbVertex
100
AcDb2dVertex
8
Layer01
10
381.628043
20
30.237183
30
0.0
0
VERTEX
100
AcDbVertex
100
AcDb2dVertex
8
Layer01
10
381.09505
20
30.326417
30
0.0
0
VERTEX
100
AcDbVertex
100
AcDb2dVertex
8
Layer01
10
380.562056
20
30.415516
30
0.0
0
VERTEX
100
AcDbVertex
100
AcDb2dVertex
8
Layer01
10
380.029063
20
30.504479
30
0.0
0
VERTEX
100
AcDbVertex
100
AcDb2dVertex
8
Layer01
10
379.49607
20
30.593307
30
0.0
0
VERTEX
100
AcDbVertex
100
AcDb2dVertex
8
Layer01
10
378.963077
20
30.681999
30
0.0
0
VERTEX
100
AcDbVertex
100
AcDb2dVertex
8
Layer01
10
378.430084
20
30.770556
30
0.0
0
VERTEX
100
AcDbVertex
100
AcDb2dVertex
8
Layer01
10
377.896995
20
30.858964
30
0.0
0
VERTEX
100
AcDbVertex
100
AcDb2dVertex
8
Layer01
10
377.364002
20
30.947223
30
0.0
0
VERTEX
100
AcDbVertex
100
AcDb2dVertex
8
Layer01
10
376.831009
20
31.035352
30
0.0
0
VERTEX
100
AcDbVertex
100
AcDb2dVertex
8
Layer01
10
376.298016
20
31.123354
30
0.0
0
VERTEX
100
AcDbVertex
100
AcDb2dVertex
8
Layer01
10
375.765023
20
31.211231
30
0.0
0
VERTEX
100
AcDbVertex
100
AcDb2dVertex
8
Layer01
10
375.23203
20
31.298986
30
0.0
0
VERTEX
100
AcDbVertex
100
AcDb2dVertex
8
Layer01
10
374.699037
20
31.386622
30
0.0
0
VERTEX
100
AcDbVertex
100
AcDb2dVertex
8
Layer01
10
374.166043
20
31.474141
30
0.0
0
VERTEX
100
AcDbVertex
100
AcDb2dVertex
8
Layer01
10
373.63305
20
31.561546
30
0.0
0
VERTEX
100
AcDbVertex
100
AcDb2dVertex
8
Layer01
10
373.100057
20
31.648838
30
0.0
0
VERTEX
100
AcDbVertex
100
AcDb2dVertex
8
Layer01
10
372.567001
20
31.736072
30
0.0
0
VERTEX
100
AcDbVertex
100
AcDb2dVertex
8
Layer01
10
372.034007
20
31.823184
30
0.0
0
VERTEX
100
AcDbVertex
100
AcDb2dVertex
8
Layer01
10
371.501014
20
31.910179
30
0.0
0
VERTEX
100
AcDbVertex
100
AcDb2dVertex
8
Layer01
10
370.968021
20
31.997056
30
0.0
0
VERTEX
100
AcDbVertex
100
AcDb2dVertex
8
Layer01
10
370.435028
20
32.083812
30
0.0
0
VERTEX
100
AcDbVertex
100
AcDb2dVertex
8
Layer01
10
369.902035
20
32.170443
30
0.0
0
VERTEX
100
AcDbVertex
100
AcDb2dVertex
8
Layer01
10
369.369042
20
32.256946
30
0.0
0
VERTEX
100
AcDbVertex
100
AcDb2dVertex
8
Layer01
10
368.836049
20
32.343318
30
0.0
0
VERTEX
100
AcDbVertex
100
AcDb2dVertex
8
Layer01
10
368.303055
20
32.429556
30
0.0
0
VERTEX
100
AcDbVertex
100
AcDb2dVertex
8
Layer01
10
367.770062
20
32.515655
30
0.0
0
VERTEX
100
AcDbVertex
100
AcDb2dVertex
8
Layer01
10
367.237006
20
32.601594
30
0.0
0
VERTEX
100
AcDbVertex
100
AcDb2dVertex
8
Layer01
10
366.704012
20
32.687381
30
0.0
0
VERTEX
100
AcDbVertex
100
AcDb2dVertex
8
Layer01
10
366.171019
20
32.773027
30
0.0
0
VERTEX
100
AcDbVertex
100
AcDb2dVertex
8
Layer01
10
365.638026
20
32.85853
30
0.0
0
VERTEX
100
AcDbVertex
100
AcDb2dVertex
8
Layer01
10
365.105033
20
32.94389
30
0.0
0
VERTEX
100
AcDbVertex
100
AcDb2dVertex
8
Layer01
10
364.57204
20
33.029108
30
0.0
0
VERTEX
100
AcDbVertex
100
AcDb2dVertex
8
Layer01
10
364.039047
20
33.114184
30
0.0
0
VERTEX
100
AcDbVertex
100
AcDb2dVertex
8
Layer01
10
363.506054
20
33.199118
30
0.0
0
VERTEX
100
AcDbVertex
100
AcDb2dVertex
8
Layer01
10
362.97306
20
33.28391
30
0.0
0
VERTEX
100
AcDbVertex
100
AcDb2dVertex
8
Layer01
10
362.440067
20
33.368561
30
0.0
0
VERTEX
100
AcDbVertex
100
AcDb2dVertex
8
Layer01
10
361.907011
20
33.453089
30
0.0
0
VERTEX
100
AcDbVertex
100
AcDb2dVertex
8
Layer01
10
361.374018
20
33.537465
30
0.0
0
VERTEX
100
AcDbVertex
100
AcDb2dVertex
8
Layer01
10
360.841024
20
33.621699
30
0.0
0
VERTEX
100
AcDbVertex
100
AcDb2dVertex
8
Layer01
10
360.308031
20
33.705792
30
0.0
0
VERTEX
100
AcDbVertex
100
AcDb2dVertex
8
Layer01
10
359.775038
20
33.789742
30
0.0
0
VERTEX
100
AcDbVertex
100
AcDb2dVertex
8
Layer01
10
359.242045
20
33.873549
30
0.0
0
VERTEX
100
AcDbVertex
100
AcDb2dVertex
8
Layer01
10
358.709052
20
33.957213
30
0.0
0
VERTEX
100
AcDbVertex
100
AcDb2dVertex
8
Layer01
10
358.176059
20
34.040733
30
0.0
0
VERTEX
100
AcDbVertex
100
AcDb2dVertex
8
Layer01
10
357.643066
20
34.12411
30
0.0
0
VERTEX
100
AcDbVertex
100
AcDb2dVertex
8
Layer01
10
357.110072
20
34.207342
30
0.0
0
VERTEX
100
AcDbVertex
100
AcDb2dVertex
8
Layer01
10
356.577016
20
34.29044
30
0.0
0
VERTEX
100
AcDbVertex
100
AcDb2dVertex
8
Layer01
10
356.044023
20
34.373383
30
0.0
0
VERTEX
100
AcDbVertex
100
AcDb2dVertex
8
Layer01
10
355.511029
20
34.45618
30
0.0
0
VERTEX
100
AcDbVertex
100
AcDb2dVertex
8
Layer01
10
354.978036
20
34.538833
30
0.0
0
VERTEX
100
AcDbVertex
100
AcDb2dVertex
8
Layer01
10
354.445043
20
34.621339
30
0.0
0
VERTEX
100
AcDbVertex
100
AcDb2dVertex
8
Layer01
10
353.91205
20
34.7037
30
0.0
0
VERTEX
100
AcDbVertex
100
AcDb2dVertex
8
Layer01
10
353.379057
20
34.785915
30
0.0
0
VERTEX
100
AcDbVertex
100
AcDb2dVertex
8
Layer01
10
352.846064
20
34.867983
30
0.0
0
VERTEX
100
AcDbVertex
100
AcDb2dVertex
8
Layer01
10
352.313071
20
34.949905
30
0.0
0
VERTEX
100
AcDbVertex
100
AcDb2dVertex
8
Layer01
10
351.780078
20
35.03168
30
0.0
0
VERTEX
100
AcDbVertex
100
AcDb2dVertex
8
Layer01
10
351.247021
20
35.113316
30
0.0
0
VERTEX
100
AcDbVertex
100
AcDb2dVertex
8
Layer01
10
350.714028
20
35.194796
30
0.0
0
VERTEX
100
AcDbVertex
100
AcDb2dVertex
8
Layer01
10
350.181035
20
35.276128
30
0.0
0
VERTEX
100
AcDbVertex
100
AcDb2dVertex
8
Layer01
10
349.648041
20
35.357313
30
0.0
0
VERTEX
100
AcDbVertex
100
AcDb2dVertex
8
Layer01
10
349.115048
20
35.438349
30
0.0
0
VERTEX
100
AcDbVertex
100
AcDb2dVertex
8
Layer01
10
348.582055
20
35.519238
30
0.0
0
VERTEX
100
AcDbVertex
100
AcDb2dVertex
8
Layer01
10
348.049062
20
35.599978
30
0.0
0
VERTEX
100
AcDbVertex
100
AcDb2dVertex
8
Layer01
10
347.516069
20
35.680569
30
0.0
0
VERTEX
100
AcDbVertex
100
AcDb2dVertex
8
Layer01
10
346.983076
20
35.761012
30
0.0
0
VERTEX
100
AcDbVertex
100
AcDb2dVertex
8
Layer01
10
346.450083
20
35.841306
30
0.0
0
VERTEX
100
AcDbVertex
100
AcDb2dVertex
8
Layer01
10
345.916994
20
35.921466
30
0.0
0
VERTEX
100
AcDbVertex
100
AcDb2dVertex
8
Layer01
10
345.384001
20
36.001463
30
0.0
0
VERTEX
100
AcDbVertex
100
AcDb2dVertex
8
Layer01
10
344.851008
20
36.08131
30
0.0
0
VERTEX
100
AcDbVertex
100
AcDb2dVertex
8
Layer01
10
344.318015
20
36.161006
30
0.0
0
VERTEX
100
AcDbVertex
100
AcDb2dVertex
8
Layer01
10
343.785022
20
36.240552
30
0.0
0
VERTEX
100
AcDbVertex
100
AcDb2dVertex
8
Layer01
10
343.252028
20
36.319948
30
0.0
0
VERTEX
100
AcDbVertex
100
AcDb2dVertex
8
Layer01
10
342.719035
20
36.399192
30
0.0
0
VERTEX
100
AcDbVertex
100
AcDb2dVertex
8
Layer01
10
342.186042
20
36.478284
30
0.0
0
VERTEX
100
AcDbVertex
100
AcDb2dVertex
8
Layer01
10
341.653049
20
36.557225
30
0.0
0
VERTEX
100
AcDbVertex
100
AcDb2dVertex
8
Layer01
10
341.120056
20
36.636013
30
0.0
0
VERTEX
100
AcDbVertex
100
AcDb2dVertex
8
Layer01
10
340.586999
20
36.714658
30
0.0
0
VERTEX
100
AcDbVertex
100
AcDb2dVertex
8
Layer01
10
340.054006
20
36.79314
30
0.0
0
VERTEX
100
AcDbVertex
100
AcDb2dVertex
8
Layer01
10
339.521013
20
36.871469
30
0.0
0
VERTEX
100
AcDbVertex
100
AcDb2dVertex
8
Layer01
10
338.98802
20
36.949645
30
0.0
0
VERTEX
100
AcDbVertex
100
AcDb2dVertex
8
Layer01
10
338.455027
20
37.027667
30
0.0
0
VERTEX
100
AcDbVertex
100
AcDb2dVertex
8
Layer01
10
337.922034
20
37.105536
30
0.0
0
VERTEX
100
AcDbVertex
100
AcDb2dVertex
8
Layer01
10
337.38904
20
37.183251
30
0.0
0
VERTEX
100
AcDbVertex
100
AcDb2dVertex
8
Layer01
10
336.856047
20
37.260812
30
0.0
0
VERTEX
100
AcDbVertex
100
AcDb2dVertex
8
Layer01
10
336.323054
20
37.338219
30
0.0
0
VERTEX
100
AcDbVertex
100
AcDb2dVertex
8
Layer01
10
335.790061
20
37.415472
30
0.0
0
VERTEX
100
AcDbVertex
100
AcDb2dVertex
8
Layer01
10
335.257004
20
37.492579
30
0.0
0
VERTEX
100
AcDbVertex
100
AcDb2dVertex
8
Layer01
10
334.724011
20
37.569523
30
0.0
0
VERTEX
100
AcDbVertex
100
AcDb2dVertex
8
Layer01
10
334.191018
20
37.646311
30
0.0
0
VERTEX
100
AcDbVertex
100
AcDb2dVertex
8
Layer01
10
333.658025
20
37.722944
30
0.0
0
VERTEX
100
AcDbVertex
100
AcDb2dVertex
8
Layer01
10
333.125032
20
37.799422
30
0.0
0
VERTEX
100
AcDbVertex
100
AcDb2dVertex
8
Layer01
10
332.592039
20
37.875744
30
0.0
0
VERTEX
100
AcDbVertex
100
AcDb2dVertex
8
Layer01
10
332.059045
20
37.951911
30
0.0
0
VERTEX
100
AcDbVertex
100
AcDb2dVertex
8
Layer01
10
331.526052
20
38.027921
30
0.0
0
VERTEX
100
AcDbVertex
100
AcDb2dVertex
8
Layer01
10
330.993059
20
38.103776
30
0.0
0
VERTEX
100
AcDbVertex
100
AcDb2dVertex
8
Layer01
10
330.460066
20
38.179474
30
0.0
0
VERTEX
100
AcDbVertex
100
AcDb2dVertex
8
Layer01
10
329.927009
20
38.255018
30
0.0
0
VERTEX
100
AcDbVertex
100
AcDb2dVertex
8
Layer01
10
329.394016
20
38.330397
30
0.0
0
VERTEX
100
AcDbVertex
100
AcDb2dVertex
8
Layer01
10
328.861023
20
38.40562
30
0.0
0
VERTEX
100
AcDbVertex
100
AcDb2dVertex
8
Layer01
10
328.32803
20
38.480687
30
0.0
0
VERTEX
100
AcDbVertex
100
AcDb2dVertex
8
Layer01
10
327.795037
20
38.555597
30
0.0
0
VERTEX
100
AcDbVertex
100
AcDb2dVertex
8
Layer01
10
327.262044
20
38.630352
30
0.0
0
VERTEX
100
AcDbVertex
100
AcDb2dVertex
8
Layer01
10
326.729051
20
38.70495
30
0.0
0
VERTEX
100
AcDbVertex
100
AcDb2dVertex
8
Layer01
10
326.196057
20
38.779392
30
0.0
0
VERTEX
100
AcDbVertex
100
AcDb2dVertex
8
Layer01
10
325.663064
20
38.853677
30
0.0
0
VERTEX
100
AcDbVertex
100
AcDb2dVertex
8
Layer01
10
325.130071
20
38.927805
30
0.0
0
VERTEX
100
AcDbVertex
100
AcDb2dVertex
8
Layer01
10
324.597014
20
39.001808
30
0.0
0
VERTEX
100
AcDbVertex
100
AcDb2dVertex
8
Layer01
10
324.064021
20
39.075642
30
0.0
0
VERTEX
100
AcDbVertex
100
AcDb2dVertex
8
Layer01
10
323.531028
20
39.149313
30
0.0
0
VERTEX
100
AcDbVertex
100
AcDb2dVertex
8
Layer01
10
322.998035
20
39.222817
30
0.0
0
VERTEX
100
AcDbVertex
100
AcDb2dVertex
8
Layer01
10
322.465042
20
39.296153
30
0.0
0
VERTEX
100
AcDbVertex
100
AcDb2dVertex
8
Layer01
10
321.932049
20
39.369316
30
0.0
0
VERTEX
100
AcDbVertex
100
AcDb2dVertex
8
Layer01
10
321.399056
20
39.442305
30
0.0
0
VERTEX
100
AcDbVertex
100
AcDb2dVertex
8
Layer01
10
320.866063
20
39.515117
30
0.0
0
VERTEX
100
AcDbVertex
100
AcDb2dVertex
8
Layer01
10
320.333069
20
39.587749
30
0.0
0
VERTEX
100
AcDbVertex
100
AcDb2dVertex
8
Layer01
10
319.800076
20
39.6602
30
0.0
0
VERTEX
100
AcDbVertex
100
AcDb2dVertex
8
Layer01
10
319.26702
20
39.732439
30
0.0
0
VERTEX
100
AcDbVertex
100
AcDb2dVertex
8
Layer01
10
318.734026
20
39.804487
30
0.0
0
VERTEX
100
AcDbVertex
100
AcDb2dVertex
8
Layer01
10
318.201033
20
39.876355
30
0.0
0
VERTEX
100
AcDbVertex
100
AcDb2dVertex
8
Layer01
10
317.66804
20
39.948045
30
0.0
0
VERTEX
100
AcDbVertex
100
AcDb2dVertex
8
Layer01
10
317.135047
20
40.01956
30
0.0
0
VERTEX
100
AcDbVertex
100
AcDb2dVertex
8
Layer01
10
316.602054
20
40.0909
30
0.0
0
VERTEX
100
AcDbVertex
100
AcDb2dVertex
8
Layer01
10
316.069061
20
40.16207
30
0.0
0
VERTEX
100
AcDbVertex
100
AcDb2dVertex
8
Layer01
10
315.536068
20
40.233072
30
0.0
0
VERTEX
100
AcDbVertex
100
AcDb2dVertex
8
Layer01
10
315.003074
20
40.303907
30
0.0
0
VERTEX
100
AcDbVertex
100
AcDb2dVertex
8
Layer01
10
314.470081
20
40.374579
30
0.0
0
VERTEX
100
AcDbVertex
100
AcDb2dVertex
8
Layer01
10
313.936993
20
40.445127
30
0.0
0
VERTEX
100
AcDbVertex
100
AcDb2dVertex
8
Layer01
10
313.404
20
40.515502
30
0.0
0
VERTEX
100
AcDbVertex
100
AcDb2dVertex
8
Layer01
10
312.871007
20
40.585716
30
0.0
0
VERTEX
100
AcDbVertex
100
AcDb2dVertex
8
Layer01
10
312.338013
20
40.65577
30
0.0
0
VERTEX
100
AcDbVertex
100
AcDb2dVertex
8
Layer01
10
311.80502
20
40.725663
30
0.0
0
VERTEX
100
AcDbVertex
100
AcDb2dVertex
8
Layer01
10
311.272027
20
40.795395
30
0.0
0
VERTEX
100
AcDbVertex
100
AcDb2dVertex
8
Layer01
10
310.739034
20
40.864965
30
0.0
0
VERTEX
100
AcDbVertex
100
AcDb2dVertex
8
Layer01
10
310.206041
20
40.934375
30
0.0
0
VERTEX
100
AcDbVertex
100
AcDb2dVertex
8
Layer01
10
309.673048
20
41.003622
30
0.0
0
VERTEX
100
AcDbVertex
100
AcDb2dVertex
8
Layer01
10
309.140055
20
41.072706
30
0.0
0
VERTEX
100
AcDbVertex
100
AcDb2dVertex
8
Layer01
10
308.606998
20
41.14163
30
0.0
0
VERTEX
100
AcDbVertex
100
AcDb2dVertex
8
Layer01
10
308.074005
20
41.210383
30
0.0
0
VERTEX
100
AcDbVertex
100
AcDb2dVertex
8
Layer01
10
307.541012
20
41.278972
30
0.0
0
VERTEX
100
AcDbVertex
100
AcDb2dVertex
8
Layer01
10
307.008019
20
41.347399
30
0.0
0
VERTEX
100
AcDbVertex
100
AcDb2dVertex
8
Layer01
10
306.475025
20
41.415661
30
0.0
0
VERTEX
100
AcDbVertex
100
AcDb2dVertex
8
Layer01
10
305.942032
20
41.48376
30
0.0
0
VERTEX
100
AcDbVertex
100
AcDb2dVertex
8
Layer01
10
305.409039
20
41.551696
30
0.0
0
VERTEX
100
AcDbVertex
100
AcDb2dVertex
8
Layer01
10
304.876046
20
41.619468
30
0.0
0
VERTEX
100
AcDbVertex
100
AcDb2dVertex
8
Layer01
10
304.343053
20
41.687076
30
0.0
0
VERTEX
100
AcDbVertex
100
AcDb2dVertex
8
Layer01
10
303.81006
20
41.75452
30
0.0
0
VERTEX
100
AcDbVertex
100
AcDb2dVertex
8
Layer01
10
303.277003
20
41.821808
30
0.0
0
VERTEX
100
AcDbVertex
100
AcDb2dVertex
8
Layer01
10
302.74401
20
41.888923
30
0.0
0
VERTEX
100
AcDbVertex
100
AcDb2dVertex
8
Layer01
10
302.211017
20
41.955875
30
0.0
0
VERTEX
100
AcDbVertex
100
AcDb2dVertex
8
Layer01
10
301.678024
20
42.022661
30
0.0
0
VERTEX
100
AcDbVertex
100
AcDb2dVertex
8
Layer01
10
301.14503
20
42.089283
30
0.0
0
VERTEX
100
AcDbVertex
100
AcDb2dVertex
8
Layer01
10
300.612037
20
42.15574
30
0.0
0
VERTEX
100
AcDbVertex
100
AcDb2dVertex
8
Layer01
10
300.079044
20
42.222032
30
0.0
0
VERTEX
100
AcDbVertex
100
AcDb2dVertex
8
Layer01
10
299.546051
20
42.288159
30
0.0
0
VERTEX
100
AcDbVertex
100
AcDb2dVertex
8
Layer01
10
299.013058
20
42.354121
30
0.0
0
VERTEX
100
AcDbVertex
100
AcDb2dVertex
8
Layer01
10
298.480065
20
42.419916
30
0.0
0
VERTEX
100
AcDbVertex
100
AcDb2dVertex
8
Layer01
10
297.947008
20
42.485554
30
0.0
0
VERTEX
100
AcDbVertex
100
AcDb2dVertex
8
Layer01
10
297.414015
20
42.551018
30
0.0
0
VERTEX
100
AcDbVertex
100
AcDb2dVertex
8
Layer01
10
296.881022
20
42.616316
30
0.0
0
VERTEX
100
AcDbVertex
100
AcDb2dVertex
8
Layer01
10
296.348029
20
42.681447
30
0.0
0
VERTEX
100
AcDbVertex
100
AcDb2dVertex
8
Layer01
10
295.815036
20
42.746412
30
0.0
0
VERTEX
100
AcDbVertex
100
AcDb2dVertex
8
Layer01
10
295.282042
20
42.811211
30
0.0
0
VERTEX
100
AcDbVertex
100
AcDb2dVertex
8
Layer01
10
294.749049
20
42.875843
30
0.0
0
VERTEX
100
AcDbVertex
100
AcDb2dVertex
8
Layer01
10
294.216056
20
42.940308
30
0.0
0
VERTEX
100
AcDbVertex
100
AcDb2dVertex
8
Layer01
10
293.683063
20
43.004606
30
0.0
0
VERTEX
100
AcDbVertex
100
AcDb2dVertex
8
Layer01
10
293.15007
20
43.068737
30
0.0
0
VERTEX
100
AcDbVertex
100
AcDb2dVertex
8
Layer01
10
292.617013
20
43.132707
30
0.0
0
VERTEX
100
AcDbVertex
100
AcDb2dVertex
8
Layer01
10
292.08402
20
43.196503
30
0.0
0
VERTEX
100
AcDbVertex
100
AcDb2dVertex
8
Layer01
10
291.551027
20
43.260131
30
0.0
0
VERTEX
100
AcDbVertex
100
AcDb2dVertex
8
Layer01
10
291.018034
20
43.323591
30
0.0
0
VERTEX
100
AcDbVertex
100
AcDb2dVertex
8
Layer01
10
290.485041
20
43.386883
30
0.0
0
VERTEX
100
AcDbVertex
100
AcDb2dVertex
8
Layer01
10
289.952048
20
43.450007
30
0.0
0
VERTEX
100
AcDbVertex
100
AcDb2dVertex
8
Layer01
10
289.419054
20
43.512963
30
0.0
0
VERTEX
100
AcDbVertex
100
AcDb2dVertex
8
Layer01
10
288.886061
20
43.575751
30
0.0
0
VERTEX
100
AcDbVertex
100
AcDb2dVertex
8
Layer01
10
288.353068
20
43.63837
30
0.0
0
VERTEX
100
AcDbVertex
100
AcDb2dVertex
8
Layer01
10
287.820075
20
43.700821
30
0.0
0
VERTEX
100
AcDbVertex
100
AcDb2dVertex
8
Layer01
10
287.287018
20
43.763112
30
0.0
0
VERTEX
100
AcDbVertex
100
AcDb2dVertex
8
Layer01
10
286.754025
20
43.825226
30
0.0
0
VERTEX
100
AcDbVertex
100
AcDb2dVertex
8
Layer01
10
286.221032
20
43.887171
30
0.0
0
VERTEX
100
AcDbVertex
100
AcDb2dVertex
8
Layer01
10
285.688039
20
43.948946
30
0.0
0
VERTEX
100
AcDbVertex
100
AcDb2dVertex
8
Layer01
10
285.155046
20
44.01055
30
0.0
0
VERTEX
100
AcDbVertex
100
AcDb2dVertex
8
Layer01
10
284.622053
20
44.071985
30
0.0
0
VERTEX
100
AcDbVertex
100
AcDb2dVertex
8
Layer01
10
284.089059
20
44.133248
30
0.0
0
VERTEX
100
AcDbVertex
100
AcDb2dVertex
8
Layer01
10
283.556066
20
44.19434
30
0.0
0
VERTEX
100
AcDbVertex
100
AcDb2dVertex
8
Layer01
10
283.023073
20
44.255261
30
0.0
0
VERTEX
100
AcDbVertex
100
AcDb2dVertex
8
Layer01
10
282.49008
20
44.316009
30
0.0
0
VERTEX
100
AcDbVertex
100
AcDb2dVertex
8
Layer01
10
281.956992
20
44.376595
30
0.0
0
VERTEX
100
AcDbVertex
100
AcDb2dVertex
8
Layer01
10
281.423998
20
44.436997
30
0.0
0
VERTEX
100
AcDbVertex
100
AcDb2dVertex
8
Layer01
10
280.891005
20
44.497226
30
0.0
0
VERTEX
100
AcDbVertex
100
AcDb2dVertex
8
Layer01
10
280.358012
20
44.557283
30
0.0
0
VERTEX
100
AcDbVertex
100
AcDb2dVertex
8
Layer01
10
279.825019
20
44.617167
30
0.0
0
VERTEX
100
AcDbVertex
100
AcDb2dVertex
8
Layer01
10
279.292026
20
44.676877
30
0.0
0
VERTEX
100
AcDbVertex
100
AcDb2dVertex
8
Layer01
10
278.759033
20
44.736415
30
0.0
0
VERTEX
100
AcDbVertex
100
AcDb2dVertex
8
Layer01
10
278.22604
20
44.795779
30
0.0
0
VERTEX
100
AcDbVertex
100
AcDb2dVertex
8
Layer01
10
277.693047
20
44.854969
30
0.0
0
VERTEX
100
AcDbVertex
100
AcDb2dVertex
8
Layer01
10
277.160053
20
44.913985
30
0.0
0
VERTEX
100
AcDbVertex
100
AcDb2dVertex
8
Layer01
10
276.626997
20
44.972862
30
0.0
0
VERTEX
100
AcDbVertex
100
AcDb2dVertex
8
Layer01
10
276.094004
20
45.031554
30
0.0
0
VERTEX
100
AcDbVertex
100
AcDb2dVertex
8
Layer01
10
275.56101
20
45.090069
30
0.0
0
VERTEX
100
AcDbVertex
100
AcDb2dVertex
8
Layer01
10
275.028017
20
45.148402
30
0.0
0
VERTEX
100
AcDbVertex
100
AcDb2dVertex
8
Layer01
10
274.495024
20
45.206553
30
0.0
0
VERTEX
100
AcDbVertex
100
AcDb2dVertex
8
Layer01
10
273.962031
20
45.26452
30
0.0
0
VERTEX
100
AcDbVertex
100
AcDb2dVertex
8
Layer01
10
273.429038
20
45.322301
30
0.0
0
VERTEX
100
AcDbVertex
100
AcDb2dVertex
8
Layer01
10
272.896045
20
45.379897
30
0.0
0
VERTEX
100
AcDbVertex
100
AcDb2dVertex
8
Layer01
10
272.363052
20
45.437306
30
0.0
0
VERTEX
100
AcDbVertex
100
AcDb2dVertex
8
Layer01
10
271.830058
20
45.494529
30
0.0
0
VERTEX
100
AcDbVertex
100
AcDb2dVertex
8
Layer01
10
271.297002
20
45.551469
30
0.0
0
VERTEX
100
AcDbVertex
100
AcDb2dVertex
8
Layer01
10
270.764009
20
45.608228
30
0.0
0
VERTEX
100
AcDbVertex
100
AcDb2dVertex
8
Layer01
10
270.231016
20
45.664822
30
0.0
0
VERTEX
100
AcDbVertex
100
AcDb2dVertex
8
Layer01
10
269.698022
20
45.721261
30
0.0
0
VERTEX
100
AcDbVertex
100
AcDb2dVertex
8
Layer01
10
269.165029
20
45.777557
30
0.0
0
VERTEX
100
AcDbVertex
100
AcDb2dVertex
8
Layer01
10
268.632036
20
45.833718
30
0.0
0
VERTEX
100
AcDbVertex
100
AcDb2dVertex
8
Layer01
10
268.099043
20
45.889756
30
0.0
0
VERTEX
100
AcDbVertex
100
AcDb2dVertex
8
Layer01
10
267.56605
20
45.94568
30
0.0
0
VERTEX
100
AcDbVertex
100
AcDb2dVertex
8
Layer01
10
267.033057
20
46.001497
30
0.0
0
VERTEX
100
AcDbVertex
100
AcDb2dVertex
8
Layer01
10
266.500064
20
46.057216
30
0.0
0
VERTEX
100
AcDbVertex
100
AcDb2dVertex
8
Layer01
10
265.967007
20
46.113005
30
0.0
0
VERTEX
100
AcDbVertex
100
AcDb2dVertex
8
Layer01
10
265.434014
20
46.168688
30
0.0
0
VERTEX
100
AcDbVertex
100
AcDb2dVertex
8
Layer01
10
264.901021
20
46.224261
30
0.0
0
VERTEX
100
AcDbVertex
100
AcDb2dVertex
8
Layer01
10
264.368027
20
46.279715
30
0.0
0
VERTEX
100
AcDbVertex
100
AcDb2dVertex
8
Layer01
10
263.835034
20
46.335039
30
0.0
0
VERTEX
100
AcDbVertex
100
AcDb2dVertex
8
Layer01
10
263.302041
20
46.390221
30
0.0
0
VERTEX
100
AcDbVertex
100
AcDb2dVertex
8
Layer01
10
262.769048
20
46.44525
30
0.0
0
VERTEX
100
AcDbVertex
100
AcDb2dVertex
8
Layer01
10
262.236055
20
46.500114
30
0.0
0
VERTEX
100
AcDbVertex
100
AcDb2dVertex
8
Layer01
10
261.703062
20
46.5548
30
0.0
0
VERTEX
100
AcDbVertex
100
AcDb2dVertex
8
Layer01
10
261.170069
20
46.609297
30
0.0
0
VERTEX
100
AcDbVertex
100
AcDb2dVertex
8
Layer01
10
260.637012
20
46.663496
30
0.0
0
VERTEX
100
AcDbVertex
100
AcDb2dVertex
8
Layer01
10
260.104019
20
46.717484
30
0.0
0
VERTEX
100
AcDbVertex
100
AcDb2dVertex
8
Layer01
10
259.571026
20
46.771268
30
0.0
0
VERTEX
100
AcDbVertex
100
AcDb2dVertex
8
Layer01
10
259.038033
20
46.824846
30
0.0
0
VERTEX
100
AcDbVertex
100
AcDb2dVertex
8
Layer01
10
258.505039
20
46.878218
30
0.0
0
VERTEX
100
AcDbVertex
100
AcDb2dVertex
8
Layer01
10
257.972046
20
46.931382
30
0.0
0
VERTEX
100
AcDbVertex
100
AcDb2dVertex
8
Layer01
10
257.439053
20
46.98434
30
0.0
0
VERTEX
100
AcDbVertex
100
AcDb2dVertex
8
Layer01
10
256.90606
20
47.037091
30
0.0
0
VERTEX
100
AcDbVertex
100
AcDb2dVertex
8
Layer01
10
256.373067
20
47.089636
30
0.0
0
VERTEX
100
AcDbVertex
100
AcDb2dVertex
8
Layer01
10
255.840074
20
47.141977
30
0.0
0
VERTEX
100
AcDbVertex
100
AcDb2dVertex
8
Layer01
10
255.307001
20
47.194149
30
0.0
0
VERTEX
100
AcDbVertex
100
AcDb2dVertex
8
Layer01
10
254.774008
20
47.246107
30
0.0
0
VERTEX
100
AcDbVertex
100
AcDb2dVertex
8
Layer01
10
254.241015
20
47.297859
30
0.0
0
VERTEX
100
AcDbVertex
100
AcDb2dVertex
8
Layer01
10
253.708022
20
47.349404
30
0.0
0
VERTEX
100
AcDbVertex
100
AcDb2dVertex
8
Layer01
10
253.175029
20
47.40074
30
0.0
0
VERTEX
100
AcDbVertex
100
AcDb2dVertex
8
Layer01
10
252.642035
20
47.451866
30
0.0
0
VERTEX
100
AcDbVertex
100
AcDb2dVertex
8
Layer01
10
252.109042
20
47.502781
30
0.0
0
VERTEX
100
AcDbVertex
100
AcDb2dVertex
8
Layer01
10
251.576049
20
47.553483
30
0.0
0
VERTEX
100
AcDbVertex
100
AcDb2dVertex
8
Layer01
10
251.043056
20
47.603971
30
0.0
0
VERTEX
100
AcDbVertex
100
AcDb2dVertex
8
Layer01
10
250.510063
20
47.654245
30
0.0
0
VERTEX
100
AcDbVertex
100
AcDb2dVertex
8
Layer01
10
249.977006
20
47.704308
30
0.0
0
VERTEX
100
AcDbVertex
100
AcDb2dVertex
8
Layer01
10
249.444013
20
47.754148
30
0.0
0
VERTEX
100
AcDbVertex
100
AcDb2dVertex
8
Layer01
10
248.91102
20
47.803768
30
0.0
0
VERTEX
100
AcDbVertex
100
AcDb2dVertex
8
Layer01
10
248.378027
20
47.853168
30
0.0
0
VERTEX
100
AcDbVertex
100
AcDb2dVertex
8
Layer01
10
247.845034
20
47.902347
30
0.0
0
VERTEX
100
AcDbVertex
100
AcDb2dVertex
8
Layer01
10
247.312041
20
47.951303
30
0.0
0
VERTEX
100
AcDbVertex
100
AcDb2dVertex
8
Layer01
10
246.779047
20
48.000035
30
0.0
0
VERTEX
100
AcDbVertex
100
AcDb2dVertex
8
Layer01
10
246.246054
20
48.048541
30
0.0
0
VERTEX
100
AcDbVertex
100
AcDb2dVertex
8
Layer01
10
245.713061
20
48.09682
30
0.0
0
VERTEX
100
AcDbVertex
100
AcDb2dVertex
8
Layer01
10
245.180068
20
48.144871
30
0.0
0
VERTEX
100
AcDbVertex
100
AcDb2dVertex
8
Layer01
10
244.647011
20
48.192697
30
0.0
0
VERTEX
100
AcDbVertex
100
AcDb2dVertex
8
Layer01
10
244.114018
20
48.240286
30
0.0
0
VERTEX
100
AcDbVertex
100
AcDb2dVertex
8
Layer01
10
243.581025
20
48.287645
30
0.0
0
VERTEX
100
AcDbVertex
100
AcDb2dVertex
8
Layer01
10
243.048032
20
48.33477
30
0.0
0
VERTEX
100
AcDbVertex
100
AcDb2dVertex
8
Layer01
10
242.515039
20
48.381662
30
0.0
0
VERTEX
100
AcDbVertex
100
AcDb2dVertex
8
Layer01
10
241.982046
20
48.428319
30
0.0
0
VERTEX
100
AcDbVertex
100
AcDb2dVertex
8
Layer01
10
241.449052
20
48.47474
30
0.0
0
VERTEX
100
AcDbVertex
100
AcDb2dVertex
8
Layer01
10
240.916059
20
48.520925
30
0.0
0
VERTEX
100
AcDbVertex
100
AcDb2dVertex
8
Layer01
10
240.383066
20
48.566871
30
0.0
0
VERTEX
100
AcDbVertex
100
AcDb2dVertex
8
Layer01
10
239.850073
20
48.612579
30
0.0
0
VERTEX
100
AcDbVertex
100
AcDb2dVertex
8
Layer01
10
239.317001
20
48.658055
30
0.0
0
VERTEX
100
AcDbVertex
100
AcDb2dVertex
8
Layer01
10
238.784007
20
48.703283
30
0.0
0
VERTEX
100
AcDbVertex
100
AcDb2dVertex
8
Layer01
10
238.251014
20
48.748268
30
0.0
0
VERTEX
100
AcDbVertex
100
AcDb2dVertex
8
Layer01
10
237.718021
20
48.793009
30
0.0
0
VERTEX
100
AcDbVertex
100
AcDb2dVertex
8
Layer01
10
237.185028
20
48.837505
30
0.0
0
VERTEX
100
AcDbVertex
100
AcDb2dVertex
8
Layer01
10
236.652035
20
48.881753
30
0.0
0
VERTEX
100
AcDbVertex
100
AcDb2dVertex
8
Layer01
10
236.119042
20
48.925753
30
0.0
0
VERTEX
100
AcDbVertex
100
AcDb2dVertex
8
Layer01
10
235.586049
20
48.969503
30
0.0
0
VERTEX
100
AcDbVertex
100
AcDb2dVertex
8
Layer01
10
235.053055
20
49.013002
30
0.0
0
VERTEX
100
AcDbVertex
100
AcDb2dVertex
8
Layer01
10
234.520062
20
49.056249
30
0.0
0
VERTEX
100
AcDbVertex
100
AcDb2dVertex
8
Layer01
10
233.987006
20
49.099245
30
0.0
0
VERTEX
100
AcDbVertex
100
AcDb2dVertex
8
Layer01
10
233.454012
20
49.141981
30
0.0
0
VERTEX
100
AcDbVertex
100
AcDb2dVertex
8
Layer01
10
232.921019
20
49.184461
30
0.0
0
VERTEX
100
AcDbVertex
100
AcDb2dVertex
8
Layer01
10
232.388026
20
49.226684
30
0.0
0
VERTEX
100
AcDbVertex
100
AcDb2dVertex
8
Layer01
10
231.855033
20
49.268648
30
0.0
0
VERTEX
100
AcDbVertex
100
AcDb2dVertex
8
Layer01
10
231.32204
20
49.310352
30
0.0
0
VERTEX
100
AcDbVertex
100
AcDb2dVertex
8
Layer01
10
230.789047
20
49.351795
30
0.0
0
VERTEX
100
AcDbVertex
100
AcDb2dVertex
8
Layer01
10
230.256054
20
49.392976
30
0.0
0
VERTEX
100
AcDbVertex
100
AcDb2dVertex
8
Layer01
10
229.72306
20
49.433894
30
0.0
0
VERTEX
100
AcDbVertex
100
AcDb2dVertex
8
Layer01
10
229.190067
20
49.474547
30
0.0
0
VERTEX
100
AcDbVertex
100
AcDb2dVertex
8
Layer01
10
228.657011
20
49.51494
30
0.0
0
VERTEX
100
AcDbVertex
100
AcDb2dVertex
8
Layer01
10
228.124018
20
49.555061
30
0.0
0
VERTEX
100
AcDbVertex
100
AcDb2dVertex
8
Layer01
10
227.591024
20
49.594915
30
0.0
0
VERTEX
100
AcDbVertex
100
AcDb2dVertex
8
Layer01
10
227.058031
20
49.6345
30
0.0
0
VERTEX
100
AcDbVertex
100
AcDb2dVertex
8
Layer01
10
226.525038
20
49.673815
30
0.0
0
VERTEX
100
AcDbVertex
100
AcDb2dVertex
8
Layer01
10
225.992045
20
49.712859
30
0.0
0
VERTEX
100
AcDbVertex
100
AcDb2dVertex
8
Layer01
10
225.459052
20
49.751631
30
0.0
0
VERTEX
100
AcDbVertex
100
AcDb2dVertex
8
Layer01
10
224.926059
20
49.790129
30
0.0
0
VERTEX
100
AcDbVertex
100
AcDb2dVertex
8
Layer01
10
224.393066
20
49.828354
30
0.0
0
VERTEX
100
AcDbVertex
100
AcDb2dVertex
8
Layer01
10
223.860072
20
49.866302
30
0.0
0
VERTEX
100
AcDbVertex
100
AcDb2dVertex
8
Layer01
10
223.327
20
49.903916
30
0.0
0
VERTEX
100
AcDbVertex
100
AcDb2dVertex
8
Layer01
10
222.794007
20
49.941252
30
0.0
0
VERTEX
100
AcDbVertex
100
AcDb2dVertex
8
Layer01
10
222.261014
20
49.978318
30
0.0
0
VERTEX
100
AcDbVertex
100
AcDb2dVertex
8
Layer01
10
221.72802
20
50.015118
30
0.0
0
VERTEX
100
AcDbVertex
100
AcDb2dVertex
8
Layer01
10
221.195027
20
50.051654
30
0.0
0
VERTEX
100
AcDbVertex
100
AcDb2dVertex
8
Layer01
10
220.662034
20
50.087927
30
0.0
0
VERTEX
100
AcDbVertex
100
AcDb2dVertex
8
Layer01
10
220.129041
20
50.123939
30
0.0
0
VERTEX
100
AcDbVertex
100
AcDb2dVertex
8
Layer01
10
219.596048
20
50.15969
30
0.0
0
VERTEX
100
AcDbVertex
100
AcDb2dVertex
8
Layer01
10
219.063055
20
50.195176
30
0.0
0
VERTEX
100
AcDbVertex
100
AcDb2dVertex
8
Layer01
10
218.530062
20
50.230396
30
0.0
0
VERTEX
100
AcDbVertex
100
AcDb2dVertex
8
Layer01
10
217.997005
20
50.265609
30
0.0
0
VERTEX
100
AcDbVertex
100
AcDb2dVertex
8
Layer01
10
217.464012
20
50.30052
30
0.0
0
VERTEX
100
AcDbVertex
100
AcDb2dVertex
8
Layer01
10
216.931019
20
50.335103
30
0.0
0
VERTEX
100
AcDbVertex
100
AcDb2dVertex
8
Layer01
10
216.398026
20
50.36933
30
0.0
0
VERTEX
100
AcDbVertex
100
AcDb2dVertex
8
Layer01
10
215.865032
20
50.403172
30
0.0
0
VERTEX
100
AcDbVertex
100
AcDb2dVertex
8
Layer01
10
215.332039
20
50.4366
30
0.0
0
VERTEX
100
AcDbVertex
100
AcDb2dVertex
8
Layer01
10
214.799046
20
50.469587
30
0.0
0
VERTEX
100
AcDbVertex
100
AcDb2dVertex
8
Layer01
10
214.266053
20
50.502107
30
0.0
0
VERTEX
100
AcDbVertex
100
AcDb2dVertex
8
Layer01
10
213.73306
20
50.534136
30
0.0
0
VERTEX
100
AcDbVertex
100
AcDb2dVertex
8
Layer01
10
213.200067
20
50.565653
30
0.0
0
VERTEX
100
AcDbVertex
100
AcDb2dVertex
8
Layer01
10
212.66701
20
50.596248
30
0.0
0
VERTEX
100
AcDbVertex
100
AcDb2dVertex
8
Layer01
10
212.134017
20
50.626327
30
0.0
0
VERTEX
100
AcDbVertex
100
AcDb2dVertex
8
Layer01
10
211.601024
20
50.655914
30
0.0
0
VERTEX
100
AcDbVertex
100
AcDb2dVertex
8
Layer01
10
211.068031
20
50.685033
30
0.0
0
VERTEX
100
AcDbVertex
100
AcDb2dVertex
8
Layer01
10
210.535037
20
50.713708
30
0.0
0
VERTEX
100
AcDbVertex
100
AcDb2dVertex
8
Layer01
10
210.002044
20
50.741966
30
0.0
0
VERTEX
100
AcDbVertex
100
AcDb2dVertex
8
Layer01
10
209.469051
20
50.769835
30
0.0
0
VERTEX
100
AcDbVertex
100
AcDb2dVertex
8
Layer01
10
208.936058
20
50.797344
30
0.0
0
VERTEX
100
AcDbVertex
100
AcDb2dVertex
8
Layer01
10
208.403065
20
50.824521
30
0.0
0
VERTEX
100
AcDbVertex
100
AcDb2dVertex
8
Layer01
10
207.870072
20
50.851394
30
0.0
0
VERTEX
100
AcDbVertex
100
AcDb2dVertex
8
Layer01
10
207.336999
20
50.878256
30
0.0
0
VERTEX
100
AcDbVertex
100
AcDb2dVertex
8
Layer01
10
206.804006
20
50.904841
30
0.0
0
VERTEX
100
AcDbVertex
100
AcDb2dVertex
8
Layer01
10
206.271013
20
50.931155
30
0.0
0
VERTEX
100
AcDbVertex
100
AcDb2dVertex
8
Layer01
10
205.73802
20
50.957198
30
0.0
0
VERTEX
100
AcDbVertex
100
AcDb2dVertex
8
Layer01
10
205.205027
20
50.982972
30
0.0
0
VERTEX
100
AcDbVertex
100
AcDb2dVertex
8
Layer01
10
204.672034
20
51.008475
30
0.0
0
VERTEX
100
AcDbVertex
100
AcDb2dVertex
8
Layer01
10
204.13904
20
51.033704
30
0.0
0
VERTEX
100
AcDbVertex
100
AcDb2dVertex
8
Layer01
10
203.606047
20
51.058656
30
0.0
0
VERTEX
100
AcDbVertex
100
AcDb2dVertex
8
Layer01
10
203.073054
20
51.083328
30
0.0
0
VERTEX
100
AcDbVertex
100
AcDb2dVertex
8
Layer01
10
202.540061
20
51.107715
30
0.0
0
VERTEX
100
AcDbVertex
100
AcDb2dVertex
8
Layer01
10
202.007004
20
51.13175
30
0.0
0
VERTEX
100
AcDbVertex
100
AcDb2dVertex
8
Layer01
10
201.474011
20
51.155494
30
0.0
0
VERTEX
100
AcDbVertex
100
AcDb2dVertex
8
Layer01
10
200.941018
20
51.178951
30
0.0
0
VERTEX
100
AcDbVertex
100
AcDb2dVertex
8
Layer01
10
200.408025
20
51.202121
30
0.0
0
VERTEX
100
AcDbVertex
100
AcDb2dVertex
8
Layer01
10
199.875032
20
51.225004
30
0.0
0
VERTEX
100
AcDbVertex
100
AcDb2dVertex
8
Layer01
10
199.342039
20
51.247601
30
0.0
0
VERTEX
100
AcDbVertex
100
AcDb2dVertex
8
Layer01
10
198.809045
20
51.269914
30
0.0
0
VERTEX
100
AcDbVertex
100
AcDb2dVertex
8
Layer01
10
198.276052
20
51.291942
30
0.0
0
VERTEX
100
AcDbVertex
100
AcDb2dVertex
8
Layer01
10
197.743059
20
51.313686
30
0.0
0
VERTEX
100
AcDbVertex
100
AcDb2dVertex
8
Layer01
10
197.210066
20
51.335146
30
0.0
0
VERTEX
100
AcDbVertex
100
AcDb2dVertex
8
Layer01
10
196.677009
20
51.356329
30
0.0
0
VERTEX
100
AcDbVertex
100
AcDb2dVertex
8
Layer01
10
196.144016
20
51.377227
30
0.0
0
VERTEX
100
AcDbVertex
100
AcDb2dVertex
8
Layer01
10
195.611023
20
51.397843
30
0.0
0
VERTEX
100
AcDbVertex
100
AcDb2dVertex
8
Layer01
10
195.07803
20
51.418177
30
0.0
0
VERTEX
100
AcDbVertex
100
AcDb2dVertex
8
Layer01
10
194.545037
20
51.438229
30
0.0
0
VERTEX
100
AcDbVertex
100
AcDb2dVertex
8
Layer01
10
194.012044
20
51.458
30
0.0
0
VERTEX
100
AcDbVertex
100
AcDb2dVertex
8
Layer01
10
193.479051
20
51.47749
30
0.0
0
VERTEX
100
AcDbVertex
100
AcDb2dVertex
8
Layer01
10
192.946057
20
51.496699
30
0.0
0
VERTEX
100
AcDbVertex
100
AcDb2dVertex
8
Layer01
10
192.413064
20
51.515627
30
0.0
0
VERTEX
100
AcDbVertex
100
AcDb2dVertex
8
Layer01
10
191.880071
20
51.534275
30
0.0
0
VERTEX
100
AcDbVertex
100
AcDb2dVertex
8
Layer01
10
191.347014
20
51.552642
30
0.0
0
VERTEX
100
AcDbVertex
100
AcDb2dVertex
8
Layer01
10
190.814021
20
51.570726
30
0.0
0
VERTEX
100
AcDbVertex
100
AcDb2dVertex
8
Layer01
10
190.281028
20
51.588532
30
0.0
0
VERTEX
100
AcDbVertex
100
AcDb2dVertex
8
Layer01
10
189.748035
20
51.60606
30
0.0
0
VERTEX
100
AcDbVertex
100
AcDb2dVertex
8
Layer01
10
189.215042
20
51.623311
30
0.0
0
VERTEX
100
AcDbVertex
100
AcDb2dVertex
8
Layer01
10
188.682049
20
51.640284
30
0.0
0
VERTEX
100
AcDbVertex
100
AcDb2dVertex
8
Layer01
10
188.149056
20
51.656982
30
0.0
0
VERTEX
100
AcDbVertex
100
AcDb2dVertex
8
Layer01
10
187.616063
20
51.673403
30
0.0
0
VERTEX
100
AcDbVertex
100
AcDb2dVertex
8
Layer01
10
187.083069
20
51.68955
30
0.0
0
VERTEX
100
AcDbVertex
100
AcDb2dVertex
8
Layer01
10
186.550076
20
51.705422
30
0.0
0
VERTEX
100
AcDbVertex
100
AcDb2dVertex
8
Layer01
10
186.017004
20
51.721026
30
0.0
0
VERTEX
100
AcDbVertex
100
AcDb2dVertex
8
Layer01
10
185.484011
20
51.736354
30
0.0
0
VERTEX
100
AcDbVertex
100
AcDb2dVertex
8
Layer01
10
184.951017
20
51.751409
30
0.0
0
VERTEX
100
AcDbVertex
100
AcDb2dVertex
8
Layer01
10
184.418024
20
51.766189
30
0.0
0
VERTEX
100
AcDbVertex
100
AcDb2dVertex
8
Layer01
10
183.885031
20
51.780696
30
0.0
0
VERTEX
100
AcDbVertex
100
AcDb2dVertex
8
Layer01
10
183.352038
20
51.794928
30
0.0
0
VERTEX
100
AcDbVertex
100
AcDb2dVertex
8
Layer01
10
182.819045
20
51.808887
30
0.0
0
VERTEX
100
AcDbVertex
100
AcDb2dVertex
8
Layer01
10
182.286052
20
51.822572
30
0.0
0
VERTEX
100
AcDbVertex
100
AcDb2dVertex
8
Layer01
10
181.753059
20
51.835982
30
0.0
0
VERTEX
100
AcDbVertex
100
AcDb2dVertex
8
Layer01
10
181.220065
20
51.849119
30
0.0
0
VERTEX
100
AcDbVertex
100
AcDb2dVertex
8
Layer01
10
180.687009
20
51.861979
30
0.0
0
VERTEX
100
AcDbVertex
100
AcDb2dVertex
8
Layer01
10
180.154016
20
51.874563
30
0.0
0
VERTEX
100
AcDbVertex
100
AcDb2dVertex
8
Layer01
10
179.621022
20
51.886874
30
0.0
0
VERTEX
100
AcDbVertex
100
AcDb2dVertex
8
Layer01
10
179.088029
20
51.898912
30
0.0
0
VERTEX
100
AcDbVertex
100
AcDb2dVertex
8
Layer01
10
178.555036
20
51.910677
30
0.0
0
VERTEX
100
AcDbVertex
100
AcDb2dVertex
8
Layer01
10
178.022043
20
51.92217
30
0.0
0
VERTEX
100
AcDbVertex
100
AcDb2dVertex
8
Layer01
10
177.48905
20
51.93339
30
0.0
0
VERTEX
100
AcDbVertex
100
AcDb2dVertex
8
Layer01
10
176.956057
20
51.944338
30
0.0
0
VERTEX
100
AcDbVertex
100
AcDb2dVertex
8
Layer01
10
176.423064
20
51.955015
30
0.0
0
VERTEX
100
AcDbVertex
100
AcDb2dVertex
8
Layer01
10
175.890071
20
51.96542
30
0.0
0
VERTEX
100
AcDbVertex
100
AcDb2dVertex
8
Layer01
10
175.357014
20
51.975559
30
0.0
0
VERTEX
100
AcDbVertex
100
AcDb2dVertex
8
Layer01
10
174.824021
20
51.985424
30
0.0
0
VERTEX
100
AcDbVertex
100
AcDb2dVertex
8
Layer01
10
174.291028
20
51.995018
30
0.0
0
VERTEX
100
AcDbVertex
100
AcDb2dVertex
8
Layer01
10
173.758034
20
52.00434
30
0.0
0
VERTEX
100
AcDbVertex
100
AcDb2dVertex
8
Layer01
10
173.225041
20
52.01339
30
0.0
0
VERTEX
100
AcDbVertex
100
AcDb2dVertex
8
Layer01
10
172.692048
20
52.022167
30
0.0
0
VERTEX
100
AcDbVertex
100
AcDb2dVertex
8
Layer01
10
172.159055
20
52.03067
30
0.0
0
VERTEX
100
AcDbVertex
100
AcDb2dVertex
8
Layer01
10
171.626062
20
52.0389
30
0.0
0
VERTEX
100
AcDbVertex
100
AcDb2dVertex
8
Layer01
10
171.093069
20
52.046856
30
0.0
0
VERTEX
100
AcDbVertex
100
AcDb2dVertex
8
Layer01
10
170.560076
20
52.054538
30
0.0
0
VERTEX
100
AcDbVertex
100
AcDb2dVertex
8
Layer01
10
170.027003
20
52.062009
30
0.0
0
VERTEX
100
AcDbVertex
100
AcDb2dVertex
8
Layer01
10
169.49401
20
52.069198
30
0.0
0
VERTEX
100
AcDbVertex
100
AcDb2dVertex
8
Layer01
10
168.961017
20
52.076102
30
0.0
0
VERTEX
100
AcDbVertex
100
AcDb2dVertex
8
Layer01
10
168.428024
20
52.082717
30
0.0
0
VERTEX
100
AcDbVertex
100
AcDb2dVertex
8
Layer01
10
167.89503
20
52.089037
30
0.0
0
VERTEX
100
AcDbVertex
100
AcDb2dVertex
8
Layer01
10
167.362037
20
52.09506
30
0.0
0
VERTEX
100
AcDbVertex
100
AcDb2dVertex
8
Layer01
10
166.829044
20
52.100784
30
0.0
0
VERTEX
100
AcDbVertex
100
AcDb2dVertex
8
Layer01
10
166.296051
20
52.106207
30
0.0
0
VERTEX
100
AcDbVertex
100
AcDb2dVertex
8
Layer01
10
165.763058
20
52.11133
30
0.0
0
VERTEX
100
AcDbVertex
100
AcDb2dVertex
8
Layer01
10
165.230065
20
52.116153
30
0.0
0
VERTEX
100
AcDbVertex
100
AcDb2dVertex
8
Layer01
10
164.697008
20
52.120414
30
0.0
0
VERTEX
100
AcDbVertex
100
AcDb2dVertex
8
Layer01
10
164.164015
20
52.124405
30
0.0
0
VERTEX
100
AcDbVertex
100
AcDb2dVertex
8
Layer01
10
163.631022
20
52.128153
30
0.0
0
VERTEX
100
AcDbVertex
100
AcDb2dVertex
8
Layer01
10
163.098029
20
52.131686
30
0.0
0
VERTEX
100
AcDbVertex
100
AcDb2dVertex
8
Layer01
10
162.565036
20
52.135031
30
0.0
0
VERTEX
100
AcDbVertex
100
AcDb2dVertex
8
Layer01
10
162.032042
20
52.138215
30
0.0
0
VERTEX
100
AcDbVertex
100
AcDb2dVertex
8
Layer01
10
161.499049
20
52.141265
30
0.0
0
VERTEX
100
AcDbVertex
100
AcDb2dVertex
8
Layer01
10
160.966056
20
52.144205
30
0.0
0
VERTEX
100
AcDbVertex
100
AcDb2dVertex
8
Layer01
10
160.433063
20
52.147057
30
0.0
0
VERTEX
100
AcDbVertex
100
AcDb2dVertex
8
Layer01
10
159.90007
20
52.149839
30
0.0
0
VERTEX
100
AcDbVertex
100
AcDb2dVertex
8
Layer01
10
159.367013
20
52.152977
30
0.0
0
VERTEX
100
AcDbVertex
100
AcDb2dVertex
8
Layer01
10
158.83402
20
52.15604
30
0.0
0
VERTEX
100
AcDbVertex
100
AcDb2dVertex
8
Layer01
10
158.301027
20
52.159006
30
0.0
0
VERTEX
100
AcDbVertex
100
AcDb2dVertex
8
Layer01
10
157.768034
20
52.161849
30
0.0
0
VERTEX
100
AcDbVertex
100
AcDb2dVertex
8
Layer01
10
157.235041
20
52.16454
30
0.0
0
VERTEX
100
AcDbVertex
100
AcDb2dVertex
8
Layer01
10
156.702048
20
52.167048
30
0.0
0
VERTEX
100
AcDbVertex
100
AcDb2dVertex
8
Layer01
10
156.169054
20
52.169342
30
0.0
0
VERTEX
100
AcDbVertex
100
AcDb2dVertex
8
Layer01
10
155.636061
20
52.171391
30
0.0
0
VERTEX
100
AcDbVertex
100
AcDb2dVertex
8
Layer01
10
155.103068
20
52.173161
30
0.0
0
VERTEX
100
AcDbVertex
100
AcDb2dVertex
8
Layer01
10
154.570075
20
52.174624
30
0.0
0
VERTEX
100
AcDbVertex
100
AcDb2dVertex
8
Layer01
10
154.037002
20
52.175474
30
0.0
0
VERTEX
100
AcDbVertex
100
AcDb2dVertex
8
Layer01
10
153.504009
20
52.175979
30
0.0
0
VERTEX
100
AcDbVertex
100
AcDb2dVertex
8
Layer01
10
152.971016
20
52.176133
30
0.0
0
VERTEX
100
AcDbVertex
100
AcDb2dVertex
8
Layer01
10
152.438023
20
52.175934
30
0.0
0
VERTEX
100
AcDbVertex
100
AcDb2dVertex
8
Layer01
10
151.90503
20
52.175379
30
0.0
0
VERTEX
100
AcDbVertex
100
AcDb2dVertex
8
Layer01
10
151.372037
20
52.174467
30
0.0
0
VERTEX
100
AcDbVertex
100
AcDb2dVertex
8
Layer01
10
150.839044
20
52.173199
30
0.0
0
VERTEX
100
AcDbVertex
100
AcDb2dVertex
8
Layer01
10
150.30605
20
52.171576
30
0.0
0
VERTEX
100
AcDbVertex
100
AcDb2dVertex
8
Layer01
10
149.773057
20
52.169598
30
0.0
0
VERTEX
100
AcDbVertex
100
AcDb2dVertex
8
Layer01
10
149.240064
20
52.167269
30
0.0
0
VERTEX
100
AcDbVertex
100
AcDb2dVertex
8
Layer01
10
148.707007
20
52.164657
30
0.0
0
VERTEX
100
AcDbVertex
100
AcDb2dVertex
8
Layer01
10
148.174014
20
52.161692
30
0.0
0
VERTEX
100
AcDbVertex
100
AcDb2dVertex
8
Layer01
10
147.641021
20
52.158372
30
0.0
0
VERTEX
100
AcDbVertex
100
AcDb2dVertex
8
Layer01
10
147.108028
20
52.154692
30
0.0
0
VERTEX
100
AcDbVertex
100
AcDb2dVertex
8
Layer01
10
146.575035
20
52.15065
30
0.0
0
VERTEX
100
AcDbVertex
100
AcDb2dVertex
8
Layer01
10
146.042042
20
52.146243
30
0.0
0
VERTEX
100
AcDbVertex
100
AcDb2dVertex
8
Layer01
10
145.509049
20
52.141467
30
0.0
0
VERTEX
100
AcDbVertex
100
AcDb2dVertex
8
Layer01
10
144.976056
20
52.136319
30
0.0
0
VERTEX
100
AcDbVertex
100
AcDb2dVertex
8
Layer01
10
144.443062
20
52.130797
30
0.0
0
VERTEX
100
AcDbVertex
100
AcDb2dVertex
8
Layer01
10
143.910069
20
52.124896
30
0.0
0
VERTEX
100
AcDbVertex
100
AcDb2dVertex
8
Layer01
10
143.377013
20
52.118613
30
0.0
0
VERTEX
100
AcDbVertex
100
AcDb2dVertex
8
Layer01
10
142.844019
20
52.111946
30
0.0
0
VERTEX
100
AcDbVertex
100
AcDb2dVertex
8
Layer01
10
142.311026
20
52.104892
30
0.0
0
VERTEX
100
AcDbVertex
100
AcDb2dVertex
8
Layer01
10
141.778033
20
52.097445
30
0.0
0
VERTEX
100
AcDbVertex
100
AcDb2dVertex
8
Layer01
10
141.24504
20
52.089604
30
0.0
0
VERTEX
100
AcDbVertex
100
AcDb2dVertex
8
Layer01
10
140.712047
20
52.081365
30
0.0
0
VERTEX
100
AcDbVertex
100
AcDb2dVertex
8
Layer01
10
140.179054
20
52.072725
30
0.0
0
VERTEX
100
AcDbVertex
100
AcDb2dVertex
8
Layer01
10
139.646061
20
52.063679
30
0.0
0
VERTEX
100
AcDbVertex
100
AcDb2dVertex
8
Layer01
10
139.113067
20
52.054226
30
0.0
0
VERTEX
100
AcDbVertex
100
AcDb2dVertex
8
Layer01
10
138.580074
20
52.04436
30
0.0
0
VERTEX
100
AcDbVertex
100
AcDb2dVertex
8
Layer01
10
138.047002
20
52.034077
30
0.0
0
VERTEX
100
AcDbVertex
100
AcDb2dVertex
8
Layer01
10
137.514009
20
52.023376
30
0.0
0
VERTEX
100
AcDbVertex
100
AcDb2dVertex
8
Layer01
10
136.981016
20
52.012254
30
0.0
0
VERTEX
100
AcDbVertex
100
AcDb2dVertex
8
Layer01
10
136.448022
20
52.000707
30
0.0
0
VERTEX
100
AcDbVertex
100
AcDb2dVertex
8
Layer01
10
135.915029
20
51.988731
30
0.0
0
VERTEX
100
AcDbVertex
100
AcDb2dVertex
8
Layer01
10
135.382036
20
51.976323
30
0.0
0
VERTEX
100
AcDbVertex
100
AcDb2dVertex
8
Layer01
10
134.849043
20
51.96348
30
0.0
0
VERTEX
100
AcDbVertex
100
AcDb2dVertex
8
Layer01
10
134.31605
20
51.950198
30
0.0
0
VERTEX
100
AcDbVertex
100
AcDb2dVertex
8
Layer01
10
133.783057
20
51.936473
30
0.0
0
VERTEX
100
AcDbVertex
100
AcDb2dVertex
8
Layer01
10
133.250064
20
51.922303
30
0.0
0
VERTEX
100
AcDbVertex
100
AcDb2dVertex
8
Layer01
10
132.716999
20
51.907684
30
0.0
0
VERTEX
100
AcDbVertex
100
AcDb2dVertex
8
Layer01
10
132.183998
20
51.892613
30
0.0
0
VERTEX
100
AcDbVertex
100
AcDb2dVertex
8
Layer01
10
131.650997
20
51.877086
30
0.0
0
VERTEX
100
AcDbVertex
100
AcDb2dVertex
8
Layer01
10
131.117996
20
51.861099
30
0.0
0
VERTEX
100
AcDbVertex
100
AcDb2dVertex
8
Layer01
10
130.584995
20
51.844649
30
0.0
0
VERTEX
100
AcDbVertex
100
AcDb2dVertex
8
Layer01
10
130.051994
20
51.827731
30
0.0
0
VERTEX
100
AcDbVertex
100
AcDb2dVertex
8
Layer01
10
129.518992
20
51.810342
30
0.0
0
VERTEX
100
AcDbVertex
100
AcDb2dVertex
8
Layer01
10
128.985991
20
51.792478
30
0.0
0
VERTEX
100
AcDbVertex
100
AcDb2dVertex
8
Layer01
10
128.45299
20
51.774136
30
0.0
0
VERTEX
100
AcDbVertex
100
AcDb2dVertex
8
Layer01
10
127.386996
20
51.736001
30
0.0
0
VERTEX
100
AcDbVertex
100
AcDb2dVertex
8
Layer01
10
126.853995
20
51.7162
30
0.0
0
VERTEX
100
AcDbVertex
100
AcDb2dVertex
8
Layer01
10
126.320994
20
51.695907
30
0.0
0
VERTEX
100
AcDbVertex
100
AcDb2dVertex
8
Layer01
10
125.787993
20
51.675117
30
0.0
0
VERTEX
100
AcDbVertex
100
AcDb2dVertex
8
Layer01
10
125.254992
20
51.653828
30
0.0
0
VERTEX
100
AcDbVertex
100
AcDb2dVertex
8
Layer01
10
124.721991
20
51.632036
30
0.0
0
VERTEX
100
AcDbVertex
100
AcDb2dVertex
8
Layer01
10
124.18899
20
51.609737
30
0.0
0
VERTEX
100
AcDbVertex
100
AcDb2dVertex
8
Layer01
10
123.655988
20
51.586928
30
0.0
0
VERTEX
100
AcDbVertex
100
AcDb2dVertex
8
Layer01
10
123.122987
20
51.563606
30
0.0
0
VERTEX
100
AcDbVertex
100
AcDb2dVertex
8
Layer01
10
122.057001
20
51.51541
30
0.0
0
VERTEX
100
AcDbVertex
100
AcDb2dVertex
8
Layer01
10
121.524
20
51.490529
30
0.0
0
VERTEX
100
AcDbVertex
100
AcDb2dVertex
8
Layer01
10
120.990999
20
51.465119
30
0.0
0
VERTEX
100
AcDbVertex
100
AcDb2dVertex
8
Layer01
10
120.457998
20
51.439177
30
0.0
0
VERTEX
100
AcDbVertex
100
AcDb2dVertex
8
Layer01
10
119.924997
20
51.4127
30
0.0
0
VERTEX
100
AcDbVertex
100
AcDb2dVertex
8
Layer01
10
119.391996
20
51.385684
30
0.0
0
VERTEX
100
AcDbVertex
100
AcDb2dVertex
8
Layer01
10
118.858995
20
51.358124
30
0.0
0
VERTEX
100
AcDbVertex
100
AcDb2dVertex
8
Layer01
10
118.325994
20
51.330017
30
0.0
0
VERTEX
100
AcDbVertex
100
AcDb2dVertex
8
Layer01
10
117.792993
20
51.30136
30
0.0
0
VERTEX
100
AcDbVertex
100
AcDb2dVertex
8
Layer01
10
116.726998
20
51.242359
30
0.0
0
VERTEX
100
AcDbVertex
100
AcDb2dVertex
8
Layer01
10
116.193997
20
51.212008
30
0.0
0
VERTEX
100
AcDbVertex
100
AcDb2dVertex
8
Layer01
10
115.660996
20
51.181096
30
0.0
0
VERTEX
100
AcDbVertex
100
AcDb2dVertex
8
Layer01
10
115.127995
20
51.149618
30
0.0
0
VERTEX
100
AcDbVertex
100
AcDb2dVertex
8
Layer01
10
114.594994
20
51.117572
30
0.0
0
VERTEX
100
AcDbVertex
100
AcDb2dVertex
8
Layer01
10
114.061993
20
51.084956
30
0.0
0
VERTEX
100
AcDbVertex
100
AcDb2dVertex
8
Layer01
10
113.528992
20
51.051766
30
0.0
0
VERTEX
100
AcDbVertex
100
AcDb2dVertex
8
Layer01
10
112.995991
20
51.018
30
0.0
0
VERTEX
100
AcDbVertex
100
AcDb2dVertex
8
Layer01
10
112.46299
20
50.983654
30
0.0
0
VERTEX
100
AcDbVertex
100
AcDb2dVertex
8
Layer01
10
111.396995
20
50.913282
30
0.0
0
VERTEX
100
AcDbVertex
100
AcDb2dVertex
8
Layer01
10
110.863994
20
50.877241
30
0.0
0
VERTEX
100
AcDbVertex
100
AcDb2dVertex
8
Layer01
10
110.330993
20
50.840589
30
0.0
0
VERTEX
100
AcDbVertex
100
AcDb2dVertex
8
Layer01
10
109.797992
20
50.803314
30
0.0
0
VERTEX
100
AcDbVertex
100
AcDb2dVertex
8
Layer01
10
109.264991
20
50.765405
30
0.0
0
VERTEX
100
AcDbVertex
100
AcDb2dVertex
8
Layer01
10
108.73199
20
50.726851
30
0.0
0
VERTEX
100
AcDbVertex
100
AcDb2dVertex
8
Layer01
10
108.198989
20
50.687641
30
0.0
0
VERTEX
100
AcDbVertex
100
AcDb2dVertex
8
Layer01
10
107.665988
20
50.647764
30
0.0
0
VERTEX
100
AcDbVertex
100
AcDb2dVertex
8
Layer01
10
107.132987
20
50.607212
30
0.0
0
VERTEX
100
AcDbVertex
100
AcDb2dVertex
8
Layer01
10
106.067001
20
50.523921
30
0.0
0
VERTEX
100
AcDbVertex
100
AcDb2dVertex
8
Layer01
10
105.533999
20
50.481178
30
0.0
0
VERTEX
100
AcDbVertex
100
AcDb2dVertex
8
Layer01
10
105.000998
20
50.43775
30
0.0
0
VERTEX
100
AcDbVertex
100
AcDb2dVertex
8
Layer01
10
104.467997
20
50.393643
30
0.0
0
VERTEX
100
AcDbVertex
100
AcDb2dVertex
8
Layer01
10
103.934996
20
50.348864
30
0.0
0
VERTEX
100
AcDbVertex
100
AcDb2dVertex
8
Layer01
10
103.401995
20
50.303419
30
0.0
0
VERTEX
100
AcDbVertex
100
AcDb2dVertex
8
Layer01
10
102.868994
20
50.257314
30
0.0
0
VERTEX
100
AcDbVertex
100
AcDb2dVertex
8
Layer01
10
102.335993
20
50.210556
30
0.0
0
VERTEX
100
AcDbVertex
100
AcDb2dVertex
8
Layer01
10
101.802992
20
50.163153
30
0.0
0
VERTEX
100
AcDbVertex
100
AcDb2dVertex
8
Layer01
10
100.736998
20
50.066525
30
0.0
0
VERTEX
100
AcDbVertex
100
AcDb2dVertex
8
Layer01
10
100.203997
20
50.017304
30
0.0
0
VERTEX
100
AcDbVertex
100
AcDb2dVertex
8
Layer01
10
99.670995
20
49.967446
30
0.0
0
VERTEX
100
AcDbVertex
100
AcDb2dVertex
8
Layer01
10
99.137994
20
49.916948
30
0.0
0
VERTEX
100
AcDbVertex
100
AcDb2dVertex
8
Layer01
10
98.604993
20
49.865809
30
0.0
0
VERTEX
100
AcDbVertex
100
AcDb2dVertex
8
Layer01
10
98.071992
20
49.814023
30
0.0
0
VERTEX
100
AcDbVertex
100
AcDb2dVertex
8
Layer01
10
97.538991
20
49.761588
30
0.0
0
VERTEX
100
AcDbVertex
100
AcDb2dVertex
8
Layer01
10
97.00599
20
49.708499
30
0.0
0
VERTEX
100
AcDbVertex
100
AcDb2dVertex
8
Layer01
10
96.472989
20
49.654751
30
0.0
0
VERTEX
100
AcDbVertex
100
AcDb2dVertex
8
Layer01
10
95.407003
20
49.54524
30
0.0
0
VERTEX
100
AcDbVertex
100
AcDb2dVertex
8
Layer01
10
94.874002
20
49.489468
30
0.0
0
VERTEX
100
AcDbVertex
100
AcDb2dVertex
8
Layer01
10
94.341001
20
49.433021
30
0.0
0
VERTEX
100
AcDbVertex
100
AcDb2dVertex
8
Layer01
10
93.807999
20
49.375897
30
0.0
0
VERTEX
100
AcDbVertex
100
AcDb2dVertex
8
Layer01
10
93.274998
20
49.318091
30
0.0
0
VERTEX
100
AcDbVertex
100
AcDb2dVertex
8
Layer01
10
92.741997
20
49.259601
30
0.0
0
VERTEX
100
AcDbVertex
100
AcDb2dVertex
8
Layer01
10
92.208996
20
49.200423
30
0.0
0
VERTEX
100
AcDbVertex
100
AcDb2dVertex
8
Layer01
10
91.675995
20
49.140555
30
0.0
0
VERTEX
100
AcDbVertex
100
AcDb2dVertex
8
Layer01
10
91.142994
20
49.079991
30
0.0
0
VERTEX
100
AcDbVertex
100
AcDb2dVertex
8
Layer01
10
90.077
20
48.956672
30
0.0
0
VERTEX
100
AcDbVertex
100
AcDb2dVertex
8
Layer01
10
89.543999
20
48.893916
30
0.0
0
VERTEX
100
AcDbVertex
100
AcDb2dVertex
8
Layer01
10
89.010998
20
48.830466
30
0.0
0
VERTEX
100
AcDbVertex
100
AcDb2dVertex
8
Layer01
10
88.477997
20
48.766325
30
0.0
0
VERTEX
100
AcDbVertex
100
AcDb2dVertex
8
Layer01
10
87.944996
20
48.701494
30
0.0
0
VERTEX
100
AcDbVertex
100
AcDb2dVertex
8
Layer01
10
87.411994
20
48.635975
30
0.0
0
VERTEX
100
AcDbVertex
100
AcDb2dVertex
8
Layer01
10
86.878993
20
48.569768
30
0.0
0
VERTEX
100
AcDbVertex
100
AcDb2dVertex
8
Layer01
10
86.345992
20
48.502869
30
0.0
0
VERTEX
100
AcDbVertex
100
AcDb2dVertex
8
Layer01
10
85.812991
20
48.435274
30
0.0
0
VERTEX
100
AcDbVertex
100
AcDb2dVertex
8
Layer01
10
84.746997
20
48.298388
30
0.0
0
VERTEX
100
AcDbVertex
100
AcDb2dVertex
8
Layer01
10
84.213996
20
48.229042
30
0.0
0
VERTEX
100
AcDbVertex
100
AcDb2dVertex
8
Layer01
10
83.680995
20
48.158896
30
0.0
0
VERTEX
100
AcDbVertex
100
AcDb2dVertex
8
Layer01
10
83.147994
20
48.087902
30
0.0
0
VERTEX
100
AcDbVertex
100
AcDb2dVertex
8
Layer01
10
82.614993
20
48.016015
30
0.0
0
VERTEX
100
AcDbVertex
100
AcDb2dVertex
8
Layer01
10
82.081992
20
47.943188
30
0.0
0
VERTEX
100
AcDbVertex
100
AcDb2dVertex
8
Layer01
10
81.548991
20
47.869378
30
0.0
0
VERTEX
100
AcDbVertex
100
AcDb2dVertex
8
Layer01
10
81.015989
20
47.794546
30
0.0
0
VERTEX
100
AcDbVertex
100
AcDb2dVertex
8
Layer01
10
80.482988
20
47.718654
30
0.0
0
VERTEX
100
AcDbVertex
100
AcDb2dVertex
8
Layer01
10
79.417002
20
47.562901
30
0.0
0
VERTEX
100
AcDbVertex
100
AcDb2dVertex
8
Layer01
10
78.884001
20
47.483044
30
0.0
0
VERTEX
100
AcDbVertex
100
AcDb2dVertex
8
Layer01
10
78.351
20
47.402141
30
0.0
0
VERTEX
100
AcDbVertex
100
AcDb2dVertex
8
Layer01
10
77.817999
20
47.320232
30
0.0
0
VERTEX
100
AcDbVertex
100
AcDb2dVertex
8
Layer01
10
77.284998
20
47.237366
30
0.0
0
VERTEX
100
AcDbVertex
100
AcDb2dVertex
8
Layer01
10
76.751997
20
47.15359
30
0.0
0
VERTEX
100
AcDbVertex
100
AcDb2dVertex
8
Layer01
10
76.218996
20
47.068955
30
0.0
0
VERTEX
100
AcDbVertex
100
AcDb2dVertex
8
Layer01
10
75.685995
20
46.983512
30
0.0
0
VERTEX
100
AcDbVertex
100
AcDb2dVertex
8
Layer01
10
75.152993
20
46.897312
30
0.0
0
VERTEX
100
AcDbVertex
100
AcDb2dVertex
8
Layer01
10
74.086999
20
46.723288
30
0.0
0
VERTEX
100
AcDbVertex
100
AcDb2dVertex
8
Layer01
10
73.553998
20
46.635518
30
0.0
0
VERTEX
100
AcDbVertex
100
AcDb2dVertex
8
Layer01
10
73.020997
20
46.547101
30
0.0
0
VERTEX
100
AcDbVertex
100
AcDb2dVertex
8
Layer01
10
72.487996
20
46.458039
30
0.0
0
VERTEX
100
AcDbVertex
100
AcDb2dVertex
8
Layer01
10
71.954995
20
46.368331
30
0.0
0
VERTEX
100
AcDbVertex
100
AcDb2dVertex
8
Layer01
10
71.421994
20
46.277976
30
0.0
0
VERTEX
100
AcDbVertex
100
AcDb2dVertex
8
Layer01
10
70.888993
20
46.186968
30
0.0
0
VERTEX
100
AcDbVertex
100
AcDb2dVertex
8
Layer01
10
70.355992
20
46.0953
30
0.0
0
VERTEX
100
AcDbVertex
100
AcDb2dVertex
8
Layer01
10
69.822991
20
46.002965
30
0.0
0
VERTEX
100
AcDbVertex
100
AcDb2dVertex
8
Layer01
10
68.756996
20
45.816147
30
0.0
0
VERTEX
100
AcDbVertex
100
AcDb2dVertex
8
Layer01
10
68.223995
20
45.72165
30
0.0
0
VERTEX
100
AcDbVertex
100
AcDb2dVertex
8
Layer01
10
67.690994
20
45.626461
30
0.0
0
VERTEX
100
AcDbVertex
100
AcDb2dVertex
8
Layer01
10
67.157993
20
45.530578
30
0.0
0
VERTEX
100
AcDbVertex
100
AcDb2dVertex
8
Layer01
10
66.624992
20
45.433996
30
0.0
0
VERTEX
100
AcDbVertex
100
AcDb2dVertex
8
Layer01
10
66.091991
20
45.33671
30
0.0
0
VERTEX
100
AcDbVertex
100
AcDb2dVertex
8
Layer01
10
65.55899
20
45.238717
30
0.0
0
VERTEX
100
AcDbVertex
100
AcDb2dVertex
8
Layer01
10
65.025989
20
45.140009
30
0.0
0
VERTEX
100
AcDbVertex
100
AcDb2dVertex
8
Layer01
10
64.492988
20
45.040581
30
0.0
0
VERTEX
100
AcDbVertex
100
AcDb2dVertex
8
Layer01
10
63.426997
20
44.839571
30
0.0
0
VERTEX
100
AcDbVertex
100
AcDb2dVertex
8
Layer01
10
62.893996
20
44.737968
30
0.0
0
VERTEX
100
AcDbVertex
100
AcDb2dVertex
8
Layer01
10
62.360995
20
44.635609
30
0.0
0
VERTEX
100
AcDbVertex
100
AcDb2dVertex
8
Layer01
10
61.827994
20
44.532481
30
0.0
0
VERTEX
100
AcDbVertex
100
AcDb2dVertex
8
Layer01
10
61.294993
20
44.428572
30
0.0
0
VERTEX
100
AcDbVertex
100
AcDb2dVertex
8
Layer01
10
60.761992
20
44.32387
30
0.0
0
VERTEX
100
AcDbVertex
100
AcDb2dVertex
8
Layer01
10
60.228991
20
44.218361
30
0.0
0
VERTEX
100
AcDbVertex
100
AcDb2dVertex
8
Layer01
10
59.69599
20
44.112033
30
0.0
0
VERTEX
100
AcDbVertex
100
AcDb2dVertex
8
Layer01
10
59.162989
20
44.004872
30
0.0
0
VERTEX
100
AcDbVertex
100
AcDb2dVertex
8
Layer01
10
58.096999
20
43.787833
30
0.0
0
VERTEX
100
AcDbVertex
100
AcDb2dVertex
8
Layer01
10
57.563998
20
43.67794
30
0.0
0
VERTEX
100
AcDbVertex
100
AcDb2dVertex
8
Layer01
10
57.030996
20
43.567187
30
0.0
0
VERTEX
100
AcDbVertex
100
AcDb2dVertex
8
Layer01
10
56.497995
20
43.455573
30
0.0
0
VERTEX
100
AcDbVertex
100
AcDb2dVertex
8
Layer01
10
55.964994
20
43.343096
30
0.0
0
VERTEX
100
AcDbVertex
100
AcDb2dVertex
8
Layer01
10
55.431993
20
43.229752
30
0.0
0
VERTEX
100
AcDbVertex
100
AcDb2dVertex
8
Layer01
10
54.898992
20
43.115534
30
0.0
0
VERTEX
100
AcDbVertex
100
AcDb2dVertex
8
Layer01
10
54.365991
20
43.000435
30
0.0
0
VERTEX
100
AcDbVertex
100
AcDb2dVertex
8
Layer01
10
53.83299
20
42.884443
30
0.0
0
VERTEX
100
AcDbVertex
100
AcDb2dVertex
8
Layer01
10
52.767
20
42.650054
30
0.0
0
VERTEX
100
AcDbVertex
100
AcDb2dVertex
8
Layer01
10
52.233999
20
42.531588
30
0.0
0
VERTEX
100
AcDbVertex
100
AcDb2dVertex
8
Layer01
10
51.700998
20
42.412098
30
0.0
0
VERTEX
100
AcDbVertex
100
AcDb2dVertex
8
Layer01
10
51.167996
20
42.291532
30
0.0
0
VERTEX
100
AcDbVertex
100
AcDb2dVertex
8
Layer01
10
50.634995
20
42.169833
30
0.0
0
VERTEX
100
AcDbVertex
100
AcDb2dVertex
8
Layer01
10
50.101994
20
42.046943
30
0.0
0
VERTEX
100
AcDbVertex
100
AcDb2dVertex
8
Layer01
10
49.568993
20
41.922803
30
0.0
0
VERTEX
100
AcDbVertex
100
AcDb2dVertex
8
Layer01
10
49.035992
20
41.797353
30
0.0
0
VERTEX
100
AcDbVertex
100
AcDb2dVertex
8
Layer01
10
48.502991
20
41.670533
30
0.0
0
VERTEX
100
AcDbVertex
100
AcDb2dVertex
8
Layer01
10
47.437001
20
41.412292
30
0.0
0
VERTEX
100
AcDbVertex
100
AcDb2dVertex
8
Layer01
10
46.904
20
41.280773
30
0.0
0
VERTEX
100
AcDbVertex
100
AcDb2dVertex
8
Layer01
10
46.370999
20
41.147692
30
0.0
0
VERTEX
100
AcDbVertex
100
AcDb2dVertex
8
Layer01
10
45.837998
20
41.013015
30
0.0
0
VERTEX
100
AcDbVertex
100
AcDb2dVertex
8
Layer01
10
45.304997
20
40.876709
30
0.0
0
VERTEX
100
AcDbVertex
100
AcDb2dVertex
8
Layer01
10
44.771995
20
40.73874
30
0.0
0
VERTEX
100
AcDbVertex
100
AcDb2dVertex
8
Layer01
10
44.238994
20
40.599076
30
0.0
0
VERTEX
100
AcDbVertex
100
AcDb2dVertex
8
Layer01
10
43.705993
20
40.457685
30
0.0
0
VERTEX
100
AcDbVertex
100
AcDb2dVertex
8
Layer01
10
43.172992
20
40.314536
30
0.0
0
VERTEX
100
AcDbVertex
100
AcDb2dVertex
8
Layer01
10
42.106998
20
40.022878
30
0.0
0
VERTEX
100
AcDbVertex
100
AcDb2dVertex
8
Layer01
10
41.573997
20
39.874299
30
0.0
0
VERTEX
100
AcDbVertex
100
AcDb2dVertex
8
Layer01
10
41.040996
20
39.723827
30
0.0
0
VERTEX
100
AcDbVertex
100
AcDb2dVertex
8
Layer01
10
40.507995
20
39.571423
30
0.0
0
VERTEX
100
AcDbVertex
100
AcDb2dVertex
8
Layer01
10
39.974994
20
39.417051
30
0.0
0
VERTEX
100
AcDbVertex
100
AcDb2dVertex
8
Layer01
10
39.441993
20
39.260673
30
0.0
0
VERTEX
100
AcDbVertex
100
AcDb2dVertex
8
Layer01
10
38.908991
20
39.102249
30
0.0
0
VERTEX
100
AcDbVertex
100
AcDb2dVertex
8
Layer01
10
38.37599
20
38.94174
30
0.0
0
VERTEX
100
AcDbVertex
100
AcDb2dVertex
8
Layer01
10
37.842989
20
38.779104
30
0.0
0
VERTEX
100
AcDbVertex
100
AcDb2dVertex
8
Layer01
10
36.776999
20
38.447552
30
0.0
0
VERTEX
100
AcDbVertex
100
AcDb2dVertex
8
Layer01
10
36.243998
20
38.278525
30
0.0
0
VERTEX
100
AcDbVertex
100
AcDb2dVertex
8
Layer01
10
35.710997
20
38.107159
30
0.0
0
VERTEX
100
AcDbVertex
100
AcDb2dVertex
8
Layer01
10
35.177996
20
37.933388
30
0.0
0
VERTEX
100
AcDbVertex
100
AcDb2dVertex
8
Layer01
10
34.644995
20
37.757151
30
0.0
0
VERTEX
100
AcDbVertex
100
AcDb2dVertex
8
Layer01
10
34.111994
20
37.578386
30
0.0
0
VERTEX
100
AcDbVertex
100
AcDb2dVertex
8
Layer01
10
33.578993
20
37.397033
30
0.0
0
VERTEX
100
AcDbVertex
100
AcDb2dVertex
8
Layer01
10
33.045994
20
37.213036
30
0.0
0
VERTEX
100
AcDbVertex
100
AcDb2dVertex
8
Layer01
10
32.512994
20
37.026344
30
0.0
0
VERTEX
100
AcDbVertex
100
AcDb2dVertex
8
Layer01
10
31.447
20
36.64385
30
0.0
0
VERTEX
100
AcDbVertex
100
AcDb2dVertex
8
Layer01
10
30.914001
20
36.448031
30
0.0
0
VERTEX
100
AcDbVertex
100
AcDb2dVertex
8
Layer01
10
30.381002
20
36.249482
30
0.0
0
VERTEX
100
AcDbVertex
100
AcDb2dVertex
8
Layer01
10
29.848003
20
36.048238
30
0.0
0
VERTEX
100
AcDbVertex
100
AcDb2dVertex
8
Layer01
10
29.315004
20
35.84433
30
0.0
0
VERTEX
100
AcDbVertex
100
AcDb2dVertex
8
Layer01
10
28.782005
20
35.637791
30
0.0
0
VERTEX
100
AcDbVertex
100
AcDb2dVertex
8
Layer01
10
28.249006
20
35.428651
30
0.0
0
VERTEX
100
AcDbVertex
100
AcDb2dVertex
8
Layer01
10
27.716007
20
35.216932
30
0.0
0
VERTEX
100
AcDbVertex
100
AcDb2dVertex
8
Layer01
10
27.183007
20
35.002653
30
0.0
0
VERTEX
100
AcDbVertex
100
AcDb2dVertex
8
Layer01
10
26.650008
20
34.785822
30
0.0
0
VERTEX
100
AcDbVertex
100
AcDb2dVertex
8
Layer01
10
26.117001
20
34.566953
30
0.0
0
VERTEX
100
AcDbVertex
100
AcDb2dVertex
8
Layer01
10
25.584002
20
34.34546
30
0.0
0
VERTEX
100
AcDbVertex
100
AcDb2dVertex
8
Layer01
10
25.051003
20
34.121276
30
0.0
0
VERTEX
100
AcDbVertex
100
AcDb2dVertex
8
Layer01
10
24.518004
20
33.894325
30
0.0
0
VERTEX
100
AcDbVertex
100
AcDb2dVertex
8
Layer01
10
23.985005
20
33.664525
30
0.0
0
VERTEX
100
AcDbVertex
100
AcDb2dVertex
8
Layer01
10
23.452006
20
33.431782
30
0.0
0
VERTEX
100
AcDbVertex
100
AcDb2dVertex
8
Layer01
10
22.919007
20
33.195996
30
0.0
0
VERTEX
100
AcDbVertex
100
AcDb2dVertex
8
Layer01
10
22.386008
20
32.957057
30
0.0
0
VERTEX
100
AcDbVertex
100
AcDb2dVertex
8
Layer01
10
21.853009
20
32.714848
30
0.0
0
VERTEX
100
AcDbVertex
100
AcDb2dVertex
8
Layer01
10
21.320009
20
32.469245
30
0.0
0
VERTEX
100
AcDbVertex
100
AcDb2dVertex
8
Layer01
10
21.053499
20
32.345071
30
0.0
0
VERTEX
100
AcDbVertex
100
AcDb2dVertex
8
Layer01
10
20.786998
20
32.220012
30
0.0
0
VERTEX
100
AcDbVertex
100
AcDb2dVertex
8
Layer01
10
20.520498
20
32.09405
30
0.0
0
VERTEX
100
AcDbVertex
100
AcDb2dVertex
8
Layer01
10
20.253997
20
31.967166
30
0.0
0
VERTEX
100
AcDbVertex
100
AcDb2dVertex
8
Layer01
10
19.987497
20
31.839343
30
0.0
0
VERTEX
100
AcDbVertex
100
AcDb2dVertex
8
Layer01
10
19.720996
20
31.710562
30
0.0
0
VERTEX
100
AcDbVertex
100
AcDb2dVertex
8
Layer01
10
19.454496
20
31.580803
30
0.0
0
VERTEX
100
AcDbVertex
100
AcDb2dVertex
8
Layer01
10
19.187995
20
31.450047
30
0.0
0
VERTEX
100
AcDbVertex
100
AcDb2dVertex
8
Layer01
10
18.921495
20
31.318271
30
0.0
0
VERTEX
100
AcDbVertex
100
AcDb2dVertex
8
Layer01
10
18.3885
20
31.051239
30
0.0
0
VERTEX
100
AcDbVertex
100
AcDb2dVertex
8
Layer01
10
18.121999
20
30.915966
30
0.0
0
VERTEX
100
AcDbVertex
100
AcDb2dVertex
8
Layer01
10
17.855498
20
30.779634
30
0.0
0
VERTEX
100
AcDbVertex
100
AcDb2dVertex
8
Layer01
10
17.588998
20
30.642236
30
0.0
0
VERTEX
100
AcDbVertex
100
AcDb2dVertex
8
Layer01
10
17.322497
20
30.503759
30
0.0
0
VERTEX
100
AcDbVertex
100
AcDb2dVertex
8
Layer01
10
17.055997
20
30.364184
30
0.0
0
VERTEX
100
AcDbVertex
100
AcDb2dVertex
8
Layer01
10
16.789496
20
30.223488
30
0.0
0
VERTEX
100
AcDbVertex
100
AcDb2dVertex
8
Layer01
10
16.522997
20
30.08164
30
0.0
0
VERTEX
100
AcDbVertex
100
AcDb2dVertex
8
Layer01
10
16.256497
20
29.938601
30
0.0
0
VERTEX
100
AcDbVertex
100
AcDb2dVertex
8
Layer01
10
15.7235
20
29.649734
30
0.0
0
VERTEX
100
AcDbVertex
100
AcDb2dVertex
8
Layer01
10
15.457001
20
29.50371
30
0.0
0
VERTEX
100
AcDbVertex
100
AcDb2dVertex
8
Layer01
10
15.190501
20
29.356109
30
0.0
0
VERTEX
100
AcDbVertex
100
AcDb2dVertex
8
Layer01
10
14.924001
20
29.20678
30
0.0
0
VERTEX
100
AcDbVertex
100
AcDb2dVertex
8
Layer01
10
14.657502
20
29.055568
30
0.0
0
VERTEX
100
AcDbVertex
100
AcDb2dVertex
8
Layer01
10
14.391002
20
28.902319
30
0.0
0
VERTEX
100
AcDbVertex
100
AcDb2dVertex
8
Layer01
10
14.124503
20
28.746879
30
0.0
0
VERTEX
100
AcDbVertex
100
AcDb2dVertex
8
Layer01
10
13.858003
20
28.589099
30
0.0
0
VERTEX
100
AcDbVertex
100
AcDb2dVertex
8
Layer01
10
13.591504
20
28.428835
30
0.0
0
VERTEX
100
AcDbVertex
100
AcDb2dVertex
8
Layer01
10
13.325004
20
28.265952
30
0.0
0
VERTEX
100
AcDbVertex
100
AcDb2dVertex
8
Layer01
10
13.058501
20
28.09889
30
0.0
0
VERTEX
100
AcDbVertex
100
AcDb2dVertex
8
Layer01
10
12.792001
20
27.929081
30
0.0
0
VERTEX
100
AcDbVertex
100
AcDb2dVertex
8
Layer01
10
12.525502
20
27.756529
30
0.0
0
VERTEX
100
AcDbVertex
100
AcDb2dVertex
8
Layer01
10
12.259002
20
27.581247
30
0.0
0
VERTEX
100
AcDbVertex
100
AcDb2dVertex
8
Layer01
10
11.992502
20
27.403257
30
0.0
0
VERTEX
100
AcDbVertex
100
AcDb2dVertex
8
Layer01
10
11.726003
20
27.222584
30
0.0
0
VERTEX
100
AcDbVertex
100
AcDb2dVertex
8
Layer01
10
11.459503
20
27.039254
30
0.0
0
VERTEX
100
AcDbVertex
100
AcDb2dVertex
8
Layer01
10
11.193004
20
26.853294
30
0.0
0
VERTEX
100
AcDbVertex
100
AcDb2dVertex
8
Layer01
10
10.926504
20
26.664729
30
0.0
0
VERTEX
100
AcDbVertex
100
AcDb2dVertex
8
Layer01
10
10.660005
20
26.47358
30
0.0
0
VERTEX
100
AcDbVertex
100
AcDb2dVertex
8
Layer01
10
10.660001
20
26.473578
30
0.0
0
VERTEX
100
AcDbVertex
100
AcDb2dVertex
8
Layer01
10
10.376698
20
26.267947
30
0.0
0
VERTEX
100
AcDbVertex
100
AcDb2dVertex
8
Layer01
10
10.097345
20
26.062316
30
0.0
0
VERTEX
100
AcDbVertex
100
AcDb2dVertex
8
Layer01
10
9.821829
20
25.856686
30
0.0
0
VERTEX
100
AcDbVertex
100
AcDb2dVertex
8
Layer01
10
9.550056
20
25.651055
30
0.0
0
VERTEX
100
AcDbVertex
100
AcDb2dVertex
8
Layer01
10
9.281955
20
25.445425
30
0.0
0
VERTEX
100
AcDbVertex
100
AcDb2dVertex
8
Layer01
10
9.017468
20
25.239794
30
0.0
0
VERTEX
100
AcDbVertex
100
AcDb2dVertex
8
Layer01
10
8.756553
20
25.034163
30
0.0
0
VERTEX
100
AcDbVertex
100
AcDb2dVertex
8
Layer01
10
8.499182
20
24.828533
30
0.0
0
VERTEX
100
AcDbVertex
100
AcDb2dVertex
8
Layer01
10
8.245337
20
24.622902
30
0.0
0
VERTEX
100
AcDbVertex
100
AcDb2dVertex
8
Layer01
10
7.99501
20
24.417272
30
0.0
0
VERTEX
100
AcDbVertex
100
AcDb2dVertex
8
Layer01
10
7.995001
20
24.417264
30
0.0
0
VERTEX
100
AcDbVertex
100
AcDb2dVertex
8
Layer01
10
7.70799
20
24.1768
30
0.0
0
VERTEX
100
AcDbVertex
100
AcDb2dVertex
8
Layer01
10
7.425772
20
23.936336
30
0.0
0
VERTEX
100
AcDbVertex
100
AcDb2dVertex
8
Layer01
10
7.14825
20
23.695873
30
0.0
0
VERTEX
100
AcDbVertex
100
AcDb2dVertex
8
Layer01
10
6.87533
20
23.455409
30
0.0
0
VERTEX
100
AcDbVertex
100
AcDb2dVertex
8
Layer01
10
6.606926
20
23.214945
30
0.0
0
VERTEX
100
AcDbVertex
100
AcDb2dVertex
8
Layer01
10
6.342955
20
22.974482
30
0.0
0
VERTEX
100
AcDbVertex
100
AcDb2dVertex
8
Layer01
10
6.083341
20
22.734018
30
0.0
0
VERTEX
100
AcDbVertex
100
AcDb2dVertex
8
Layer01
10
5.828015
20
22.493555
30
0.0
0
VERTEX
100
AcDbVertex
100
AcDb2dVertex
8
Layer01
10
5.576917
20
22.253091
30
0.0
0
VERTEX
100
AcDbVertex
100
AcDb2dVertex
8
Layer01
10
5.33
20
22.012633
30
0.0
0
VERTEX
100
AcDbVertex
100
AcDb2dVertex
8
Layer01
10
5.035948
20
21.721162
30
0.0
0
VERTEX
100
AcDbVertex
100
AcDb2dVertex
8
Layer01
10
4.747909
20
21.429691
30
0.0
0
VERTEX
100
AcDbVertex
100
AcDb2dVertex
8
Layer01
10
4.465876
20
21.13822
30
0.0
0
VERTEX
100
AcDbVertex
100
AcDb2dVertex
8
Layer01
10
4.189867
20
20.846749
30
0.0
0
VERTEX
100
AcDbVertex
100
AcDb2dVertex
8
Layer01
10
3.919931
20
20.555277
30
0.0
0
VERTEX
100
AcDbVertex
100
AcDb2dVertex
8
Layer01
10
3.656141
20
20.263806
30
0.0
0
VERTEX
100
AcDbVertex
100
AcDb2dVertex
8
Layer01
10
3.398603
20
19.972335
30
0.0
0
VERTEX
100
AcDbVertex
100
AcDb2dVertex
8
Layer01
10
3.147451
20
19.680864
30
0.0
0
VERTEX
100
AcDbVertex
100
AcDb2dVertex
8
Layer01
10
2.90285
20
19.389393
30
0.0
0
VERTEX
100
AcDbVertex
100
AcDb2dVertex
8
Layer01
10
2.665
20
19.097923
30
0.0
0
VERTEX
100
AcDbVertex
100
AcDb2dVertex
8
Layer01
10
2.271815
20
18.588854
30
0.0
0
VERTEX
100
AcDbVertex
100
AcDb2dVertex
8
Layer01
10
1.901959
20
18.079786
30
0.0
0
VERTEX
100
AcDbVertex
100
AcDb2dVertex
8
Layer01
10
1.556553
20
17.570717
30
0.0
0
VERTEX
100
AcDbVertex
100
AcDb2dVertex
8
Layer01
10
1.237032
20
17.061648
30
0.0
0
VERTEX
100
AcDbVertex
100
AcDb2dVertex
8
Layer01
10
0.945212
20
16.55258
30
0.0
0
VERTEX
100
AcDbVertex
100
AcDb2dVertex
8
Layer01
10
0.683354
20
16.043512
30
0.0
0
VERTEX
100
AcDbVertex
100
AcDb2dVertex
8
Layer01
10
0.454229
20
15.534444
30
0.0
0
VERTEX
100
AcDbVertex
100
AcDb2dVertex
8
Layer01
10
0.261185
20
15.025376
30
0.0
0
VERTEX
100
AcDbVertex
100
AcDb2dVertex
8
Layer01
10
0.108209
20
14.516308
30
0.0
0
VERTEX
100
AcDbVertex
100
AcDb2dVertex
8
Layer01
10
0.0
20
14.00724
30
0.0
0
VERTEX
100
AcDbVertex
100
AcDb2dVertex
8
Layer01
10
0.0
20
14.00724
30
0.0
0
VERTEX
100
AcDbVertex
100
AcDb2dVertex
8
Layer01
10
-0.031004
20
13.521448
30
0.0
0
VERTEX
100
AcDbVertex
100
AcDb2dVertex
8
Layer01
10
-0.014147
20
13.035657
30
0.0
0
VERTEX
100
AcDbVertex
100
AcDb2dVertex
8
Layer01
10
0.054884
20
12.549865
30
0.0
0
VERTEX
100
AcDbVertex
100
AcDb2dVertex
8
Layer01
10
0.181613
20
12.064073
30
0.0
0
VERTEX
100
AcDbVertex
100
AcDb2dVertex
8
Layer01
10
0.372973
20
11.578281
30
0.0
0
VERTEX
100
AcDbVertex
100
AcDb2dVertex
8
Layer01
10
0.637495
20
11.092489
30
0.0
0
VERTEX
100
AcDbVertex
100
AcDb2dVertex
8
Layer01
10
0.985514
20
10.606697
30
0.0
0
VERTEX
100
AcDbVertex
100
AcDb2dVertex
8
Layer01
10
1.429359
20
10.120905
30
0.0
0
VERTEX
100
AcDbVertex
100
AcDb2dVertex
8
Layer01
10
1.983549
20
9.635113
30
0.0
0
VERTEX
100
AcDbVertex
100
AcDb2dVertex
8
Layer01
10
2.664995
20
9.149321
30
0.0
0
VERTEX
100
AcDbVertex
100
AcDb2dVertex
8
Layer01
10
2.665
20
9.149318
30
0.0
0
VERTEX
100
AcDbVertex
100
AcDb2dVertex
8
Layer01
10
2.858587
20
9.017071
30
0.0
0
VERTEX
100
AcDbVertex
100
AcDb2dVertex
8
Layer01
10
3.067881
20
8.884823
30
0.0
0
VERTEX
100
AcDbVertex
100
AcDb2dVertex
8
Layer01
10
3.29321
20
8.752575
30
0.0
0
VERTEX
100
AcDbVertex
100
AcDb2dVertex
8
Layer01
10
3.534829
20
8.620328
30
0.0
0
VERTEX
100
AcDbVertex
100
AcDb2dVertex
8
Layer01
10
3.792908
20
8.48808
30
0.0
0
VERTEX
100
AcDbVertex
100
AcDb2dVertex
8
Layer01
10
4.067534
20
8.355833
30
0.0
0
VERTEX
100
AcDbVertex
100
AcDb2dVertex
8
Layer01
10
4.358704
20
8.223585
30
0.0
0
VERTEX
100
AcDbVertex
100
AcDb2dVertex
8
Layer01
10
4.66632
20
8.091337
30
0.0
0
VERTEX
100
AcDbVertex
100
AcDb2dVertex
8
Layer01
10
4.990184
20
7.959089
30
0.0
0
VERTEX
100
AcDbVertex
100
AcDb2dVertex
8
Layer01
10
5.329995
20
7.826841
30
0.0
0
VERTEX
100
AcDbVertex
100
AcDb2dVertex
8
Layer01
10
5.33
20
7.826839
30
0.0
0
VERTEX
100
AcDbVertex
100
AcDb2dVertex
8
Layer01
10
5.567364
20
7.737625
30
0.0
0
VERTEX
100
AcDbVertex
100
AcDb2dVertex
8
Layer01
10
5.811776
20
7.648411
30
0.0
0
VERTEX
100
AcDbVertex
100
AcDb2dVertex
8
Layer01
10
6.063078
20
7.559198
30
0.0
0
VERTEX
100
AcDbVertex
100
AcDb2dVertex
8
Layer01
10
6.321078
20
7.469984
30
0.0
0
VERTEX
100
AcDbVertex
100
AcDb2dVertex
8
Layer01
10
6.585556
20
7.380771
30
0.0
0
VERTEX
100
AcDbVertex
100
AcDb2dVertex
8
Layer01
10
6.856258
20
7.291557
30
0.0
0
VERTEX
100
AcDbVertex
100
AcDb2dVertex
8
Layer01
10
7.132894
20
7.202343
30
0.0
0
VERTEX
100
AcDbVertex
100
AcDb2dVertex
8
Layer01
10
7.415143
20
7.11313
30
0.0
0
VERTEX
100
AcDbVertex
100
AcDb2dVertex
8
Layer01
10
7.702644
20
7.023916
30
0.0
0
VERTEX
100
AcDbVertex
100
AcDb2dVertex
8
Layer01
10
7.995
20
6.934703
30
0.0
0
VERTEX
100
AcDbVertex
100
AcDb2dVertex
8
Layer01
10
8.25452
20
6.857264
30
0.0
0
VERTEX
100
AcDbVertex
100
AcDb2dVertex
8
Layer01
10
8.516812
20
6.779824
30
0.0
0
VERTEX
100
AcDbVertex
100
AcDb2dVertex
8
Layer01
10
8.781425
20
6.702384
30
0.0
0
VERTEX
100
AcDbVertex
100
AcDb2dVertex
8
Layer01
10
9.0479
20
6.624945
30
0.0
0
VERTEX
100
AcDbVertex
100
AcDb2dVertex
8
Layer01
10
9.315772
20
6.547505
30
0.0
0
VERTEX
100
AcDbVertex
100
AcDb2dVertex
8
Layer01
10
9.584578
20
6.470066
30
0.0
0
VERTEX
100
AcDbVertex
100
AcDb2dVertex
8
Layer01
10
9.853855
20
6.392626
30
0.0
0
VERTEX
100
AcDbVertex
100
AcDb2dVertex
8
Layer01
10
10.123147
20
6.315186
30
0.0
0
VERTEX
100
AcDbVertex
100
AcDb2dVertex
8
Layer01
10
10.392007
20
6.237747
30
0.0
0
VERTEX
100
AcDbVertex
100
AcDb2dVertex
8
Layer01
10
10.66
20
6.160307
30
0.0
0
VERTEX
100
AcDbVertex
100
AcDb2dVertex
8
Layer01
10
10.926499
20
6.084654
30
0.0
0
VERTEX
100
AcDbVertex
100
AcDb2dVertex
8
Layer01
10
11.192999
20
6.008336
30
0.0
0
VERTEX
100
AcDbVertex
100
AcDb2dVertex
8
Layer01
10
11.459498
20
5.93111
30
0.0
0
VERTEX
100
AcDbVertex
100
AcDb2dVertex
8
Layer01
10
11.725998
20
5.852749
30
0.0
0
VERTEX
100
AcDbVertex
100
AcDb2dVertex
8
Layer01
10
11.992497
20
5.773047
30
0.0
0
VERTEX
100
AcDbVertex
100
AcDb2dVertex
8
Layer01
10
12.258997
20
5.691824
30
0.0
0
VERTEX
100
AcDbVertex
100
AcDb2dVertex
8
Layer01
10
12.525497
20
5.608931
30
0.0
0
VERTEX
100
AcDbVertex
100
AcDb2dVertex
8
Layer01
10
12.791996
20
5.52426
30
0.0
0
VERTEX
100
AcDbVertex
100
AcDb2dVertex
8
Layer01
10
13.058496
20
5.43774
30
0.0
0
VERTEX
100
AcDbVertex
100
AcDb2dVertex
8
Layer01
10
13.324995
20
5.349349
30
0.0
0
VERTEX
100
AcDbVertex
100
AcDb2dVertex
8
Layer01
10
13.5915
20
5.253353
30
0.0
0
VERTEX
100
AcDbVertex
100
AcDb2dVertex
8
Layer01
10
13.857999
20
5.156043
30
0.0
0
VERTEX
100
AcDbVertex
100
AcDb2dVertex
8
Layer01
10
14.124499
20
5.057985
30
0.0
0
VERTEX
100
AcDbVertex
100
AcDb2dVertex
8
Layer01
10
14.390998
20
4.959782
30
0.0
0
VERTEX
100
AcDbVertex
100
AcDb2dVertex
8
Layer01
10
14.657498
20
4.862056
30
0.0
0
VERTEX
100
AcDbVertex
100
AcDb2dVertex
8
Layer01
10
14.923997
20
4.765439
30
0.0
0
VERTEX
100
AcDbVertex
100
AcDb2dVertex
8
Layer01
10
15.190497
20
4.670559
30
0.0
0
VERTEX
100
AcDbVertex
100
AcDb2dVertex
8
Layer01
10
15.456997
20
4.578029
30
0.0
0
VERTEX
100
AcDbVertex
100
AcDb2dVertex
8
Layer01
10
15.723496
20
4.488433
30
0.0
0
VERTEX
100
AcDbVertex
100
AcDb2dVertex
8
Layer01
10
15.989996
20
4.402315
30
0.0
0
VERTEX
100
AcDbVertex
100
AcDb2dVertex
8
Layer01
10
16.256499
20
4.326184
30
0.0
0
VERTEX
100
AcDbVertex
100
AcDb2dVertex
8
Layer01
10
16.522999
20
4.253998
30
0.0
0
VERTEX
100
AcDbVertex
100
AcDb2dVertex
8
Layer01
10
16.789498
20
4.185672
30
0.0
0
VERTEX
100
AcDbVertex
100
AcDb2dVertex
8
Layer01
10
17.055999
20
4.121069
30
0.0
0
VERTEX
100
AcDbVertex
100
AcDb2dVertex
8
Layer01
10
17.322499
20
4.060004
30
0.0
0
VERTEX
100
AcDbVertex
100
AcDb2dVertex
8
Layer01
10
17.589
20
4.002253
30
0.0
0
VERTEX
100
AcDbVertex
100
AcDb2dVertex
8
Layer01
10
17.8555
20
3.947556
30
0.0
0
VERTEX
100
AcDbVertex
100
AcDb2dVertex
8
Layer01
10
18.122001
20
3.895625
30
0.0
0
VERTEX
100
AcDbVertex
100
AcDb2dVertex
8
Layer01
10
18.388502
20
3.846148
30
0.0
0
VERTEX
100
AcDbVertex
100
AcDb2dVertex
8
Layer01
10
18.921501
20
3.750123
30
0.0
0
VERTEX
100
AcDbVertex
100
AcDb2dVertex
8
Layer01
10
19.188001
20
3.703012
30
0.0
0
VERTEX
100
AcDbVertex
100
AcDb2dVertex
8
Layer01
10
19.454502
20
3.657351
30
0.0
0
VERTEX
100
AcDbVertex
100
AcDb2dVertex
8
Layer01
10
19.721002
20
3.613031
30
0.0
0
VERTEX
100
AcDbVertex
100
AcDb2dVertex
8
Layer01
10
19.987503
20
3.569953
30
0.0
0
VERTEX
100
AcDbVertex
100
AcDb2dVertex
8
Layer01
10
20.254003
20
3.528024
30
0.0
0
VERTEX
100
AcDbVertex
100
AcDb2dVertex
8
Layer01
10
20.520504
20
3.487156
30
0.0
0
VERTEX
100
AcDbVertex
100
AcDb2dVertex
8
Layer01
10
20.787004
20
3.447271
30
0.0
0
VERTEX
100
AcDbVertex
100
AcDb2dVertex
8
Layer01
10
21.053505
20
3.408294
30
0.0
0
VERTEX
100
AcDbVertex
100
AcDb2dVertex
8
Layer01
10
21.852999
20
3.295542
30
0.0
0
VERTEX
100
AcDbVertex
100
AcDb2dVertex
8
Layer01
10
22.385998
20
3.223536
30
0.0
0
VERTEX
100
AcDbVertex
100
AcDb2dVertex
8
Layer01
10
22.918997
20
3.153892
30
0.0
0
VERTEX
100
AcDbVertex
100
AcDb2dVertex
8
Layer01
10
23.451996
20
3.086451
30
0.0
0
VERTEX
100
AcDbVertex
100
AcDb2dVertex
8
Layer01
10
23.984995
20
3.021126
30
0.0
0
VERTEX
100
AcDbVertex
100
AcDb2dVertex
8
Layer01
10
24.517994
20
2.957895
30
0.0
0
VERTEX
100
AcDbVertex
100
AcDb2dVertex
8
Layer01
10
25.050993
20
2.896786
30
0.0
0
VERTEX
100
AcDbVertex
100
AcDb2dVertex
8
Layer01
10
25.583992
20
2.837861
30
0.0
0
VERTEX
100
AcDbVertex
100
AcDb2dVertex
8
Layer01
10
26.116991
20
2.781211
30
0.0
0
VERTEX
100
AcDbVertex
100
AcDb2dVertex
8
Layer01
10
26.64999
20
2.726936
30
0.0
0
VERTEX
100
AcDbVertex
100
AcDb2dVertex
8
Layer01
10
27.182999
20
2.680043
30
0.0
0
VERTEX
100
AcDbVertex
100
AcDb2dVertex
8
Layer01
10
27.715999
20
2.63548
30
0.0
0
VERTEX
100
AcDbVertex
100
AcDb2dVertex
8
Layer01
10
28.248998
20
2.592908
30
0.0
0
VERTEX
100
AcDbVertex
100
AcDb2dVertex
8
Layer01
10
28.781997
20
2.551976
30
0.0
0
VERTEX
100
AcDbVertex
100
AcDb2dVertex
8
Layer01
10
29.314996
20
2.512316
30
0.0
0
VERTEX
100
AcDbVertex
100
AcDb2dVertex
8
Layer01
10
29.847995
20
2.473558
30
0.0
0
VERTEX
100
AcDbVertex
100
AcDb2dVertex
8
Layer01
10
30.380994
20
2.435334
30
0.0
0
VERTEX
100
AcDbVertex
100
AcDb2dVertex
8
Layer01
10
30.913993
20
2.397286
30
0.0
0
VERTEX
100
AcDbVertex
100
AcDb2dVertex
8
Layer01
10
31.446992
20
2.359069
30
0.0
0
VERTEX
100
AcDbVertex
100
AcDb2dVertex
8
Layer01
10
31.979991
20
2.320363
30
0.0
0
VERTEX
100
AcDbVertex
100
AcDb2dVertex
8
Layer01
10
32.512998
20
2.277183
30
0.0
0
VERTEX
100
AcDbVertex
100
AcDb2dVertex
8
Layer01
10
33.045997
20
2.233249
30
0.0
0
VERTEX
100
AcDbVertex
100
AcDb2dVertex
8
Layer01
10
33.578997
20
2.188619
30
0.0
0
VERTEX
100
AcDbVertex
100
AcDb2dVertex
8
Layer01
10
34.111998
20
2.143379
30
0.0
0
VERTEX
100
AcDbVertex
100
AcDb2dVertex
8
Layer01
10
34.644999
20
2.097639
30
0.0
0
VERTEX
100
AcDbVertex
100
AcDb2dVertex
8
Layer01
10
35.178
20
2.051529
30
0.0
0
VERTEX
100
AcDbVertex
100
AcDb2dVertex
8
Layer01
10
35.711001
20
2.005195
30
0.0
0
VERTEX
100
AcDbVertex
100
AcDb2dVertex
8
Layer01
10
36.244002
20
1.958795
30
0.0
0
VERTEX
100
AcDbVertex
100
AcDb2dVertex
8
Layer01
10
36.777003
20
1.912494
30
0.0
0
VERTEX
100
AcDbVertex
100
AcDb2dVertex
8
Layer01
10
37.843001
20
1.822151
30
0.0
0
VERTEX
100
AcDbVertex
100
AcDb2dVertex
8
Layer01
10
38.376002
20
1.778339
30
0.0
0
VERTEX
100
AcDbVertex
100
AcDb2dVertex
8
Layer01
10
38.909003
20
1.735082
30
0.0
0
VERTEX
100
AcDbVertex
100
AcDb2dVertex
8
Layer01
10
39.442004
20
1.692431
30
0.0
0
VERTEX
100
AcDbVertex
100
AcDb2dVertex
8
Layer01
10
39.975006
20
1.650432
30
0.0
0
VERTEX
100
AcDbVertex
100
AcDb2dVertex
8
Layer01
10
40.508007
20
1.609123
30
0.0
0
VERTEX
100
AcDbVertex
100
AcDb2dVertex
8
Layer01
10
41.041008
20
1.568536
30
0.0
0
VERTEX
100
AcDbVertex
100
AcDb2dVertex
8
Layer01
10
41.574009
20
1.528694
30
0.0
0
VERTEX
100
AcDbVertex
100
AcDb2dVertex
8
Layer01
10
42.10701
20
1.489615
30
0.0
0
VERTEX
100
AcDbVertex
100
AcDb2dVertex
8
Layer01
10
43.173
20
1.414606
30
0.0
0
VERTEX
100
AcDbVertex
100
AcDb2dVertex
8
Layer01
10
43.706001
20
1.378604
30
0.0
0
VERTEX
100
AcDbVertex
100
AcDb2dVertex
8
Layer01
10
44.239002
20
1.34322
30
0.0
0
VERTEX
100
AcDbVertex
100
AcDb2dVertex
8
Layer01
10
44.772003
20
1.308372
30
0.0
0
VERTEX
100
AcDbVertex
100
AcDb2dVertex
8
Layer01
10
45.305004
20
1.273976
30
0.0
0
VERTEX
100
AcDbVertex
100
AcDb2dVertex
8
Layer01
10
45.838006
20
1.239945
30
0.0
0
VERTEX
100
AcDbVertex
100
AcDb2dVertex
8
Layer01
10
46.371007
20
1.206198
30
0.0
0
VERTEX
100
AcDbVertex
100
AcDb2dVertex
8
Layer01
10
46.904008
20
1.172658
30
0.0
0
VERTEX
100
AcDbVertex
100
AcDb2dVertex
8
Layer01
10
47.437009
20
1.139253
30
0.0
0
VERTEX
100
AcDbVertex
100
AcDb2dVertex
8
Layer01
10
48.503003
20
1.071058
30
0.0
0
VERTEX
100
AcDbVertex
100
AcDb2dVertex
8
Layer01
10
49.036004
20
1.036298
30
0.0
0
VERTEX
100
AcDbVertex
100
AcDb2dVertex
8
Layer01
10
49.569005
20
1.001733
30
0.0
0
VERTEX
100
AcDbVertex
100
AcDb2dVertex
8
Layer01
10
50.102006
20
0.967463
30
0.0
0
VERTEX
100
AcDbVertex
100
AcDb2dVertex
8
Layer01
10
50.635007
20
0.933593
30
0.0
0
VERTEX
100
AcDbVertex
100
AcDb2dVertex
8
Layer01
10
51.168008
20
0.900233
30
0.0
0
VERTEX
100
AcDbVertex
100
AcDb2dVertex
8
Layer01
10
51.701009
20
0.867495
30
0.0
0
VERTEX
100
AcDbVertex
100
AcDb2dVertex
8
Layer01
10
52.234011
20
0.835486
30
0.0
0
VERTEX
100
AcDbVertex
100
AcDb2dVertex
8
Layer01
10
52.767012
20
0.804313
30
0.0
0
VERTEX
100
AcDbVertex
100
AcDb2dVertex
8
Layer01
10
53.833002
20
0.746151
30
0.0
0
VERTEX
100
AcDbVertex
100
AcDb2dVertex
8
Layer01
10
54.366003
20
0.719233
30
0.0
0
VERTEX
100
AcDbVertex
100
AcDb2dVertex
8
Layer01
10
54.899004
20
0.693294
30
0.0
0
VERTEX
100
AcDbVertex
100
AcDb2dVertex
8
Layer01
10
55.432005
20
0.668297
30
0.0
0
VERTEX
100
AcDbVertex
100
AcDb2dVertex
8
Layer01
10
55.965006
20
0.644199
30
0.0
0
VERTEX
100
AcDbVertex
100
AcDb2dVertex
8
Layer01
10
56.498007
20
0.62095
30
0.0
0
VERTEX
100
AcDbVertex
100
AcDb2dVertex
8
Layer01
10
57.031008
20
0.598497
30
0.0
0
VERTEX
100
AcDbVertex
100
AcDb2dVertex
8
Layer01
10
57.564009
20
0.576784
30
0.0
0
VERTEX
100
AcDbVertex
100
AcDb2dVertex
8
Layer01
10
58.097011
20
0.555752
30
0.0
0
VERTEX
100
AcDbVertex
100
AcDb2dVertex
8
Layer01
10
59.163001
20
0.514934
30
0.0
0
VERTEX
100
AcDbVertex
100
AcDb2dVertex
8
Layer01
10
59.696002
20
0.495079
30
0.0
0
VERTEX
100
AcDbVertex
100
AcDb2dVertex
8
Layer01
10
60.229003
20
0.475774
30
0.0
0
VERTEX
100
AcDbVertex
100
AcDb2dVertex
8
Layer01
10
60.762004
20
0.457012
30
0.0
0
VERTEX
100
AcDbVertex
100
AcDb2dVertex
8
Layer01
10
61.295005
20
0.43879
30
0.0
0
VERTEX
100
AcDbVertex
100
AcDb2dVertex
8
Layer01
10
61.828006
20
0.421104
30
0.0
0
VERTEX
100
AcDbVertex
100
AcDb2dVertex
8
Layer01
10
62.361007
20
0.403954
30
0.0
0
VERTEX
100
AcDbVertex
100
AcDb2dVertex
8
Layer01
10
62.894008
20
0.387341
30
0.0
0
VERTEX
100
AcDbVertex
100
AcDb2dVertex
8
Layer01
10
63.427009
20
0.371264
30
0.0
0
VERTEX
100
AcDbVertex
100
AcDb2dVertex
8
Layer01
10
64.493
20
0.340831
30
0.0
0
VERTEX
100
AcDbVertex
100
AcDb2dVertex
8
Layer01
10
65.026001
20
0.326468
30
0.0
0
VERTEX
100
AcDbVertex
100
AcDb2dVertex
8
Layer01
10
65.559002
20
0.312628
30
0.0
0
VERTEX
100
AcDbVertex
100
AcDb2dVertex
8
Layer01
10
66.092003
20
0.299302
30
0.0
0
VERTEX
100
AcDbVertex
100
AcDb2dVertex
8
Layer01
10
66.625
20
0.286483
30
0.0
0
VERTEX
100
AcDbVertex
100
AcDb2dVertex
8
Layer01
10
67.158001
20
0.274162
30
0.0
0
VERTEX
100
AcDbVertex
100
AcDb2dVertex
8
Layer01
10
67.691002
20
0.262329
30
0.0
0
VERTEX
100
AcDbVertex
100
AcDb2dVertex
8
Layer01
10
68.224003
20
0.250975
30
0.0
0
VERTEX
100
AcDbVertex
100
AcDb2dVertex
8
Layer01
10
68.757004
20
0.240092
30
0.0
0
VERTEX
100
AcDbVertex
100
AcDb2dVertex
8
Layer01
10
69.822999
20
0.219615
30
0.0
0
VERTEX
100
AcDbVertex
100
AcDb2dVertex
8
Layer01
10
70.356
20
0.210007
30
0.0
0
VERTEX
100
AcDbVertex
100
AcDb2dVertex
8
Layer01
10
70.889001
20
0.200842
30
0.0
0
VERTEX
100
AcDbVertex
100
AcDb2dVertex
8
Layer01
10
71.422002
20
0.192115
30
0.0
0
VERTEX
100
AcDbVertex
100
AcDb2dVertex
8
Layer01
10
71.955003
20
0.183821
30
0.0
0
VERTEX
100
AcDbVertex
100
AcDb2dVertex
8
Layer01
10
72.488004
20
0.175953
30
0.0
0
VERTEX
100
AcDbVertex
100
AcDb2dVertex
8
Layer01
10
73.021005
20
0.168502
30
0.0
0
VERTEX
100
AcDbVertex
100
AcDb2dVertex
8
Layer01
10
73.554006
20
0.161459
30
0.0
0
VERTEX
100
AcDbVertex
100
AcDb2dVertex
8
Layer01
10
74.087007
20
0.154812
30
0.0
0
VERTEX
100
AcDbVertex
100
AcDb2dVertex
8
Layer01
10
75.153001
20
0.142987
30
0.0
0
VERTEX
100
AcDbVertex
100
AcDb2dVertex
8
Layer01
10
75.686002
20
0.137748
30
0.0
0
VERTEX
100
AcDbVertex
100
AcDb2dVertex
8
Layer01
10
76.219004
20
0.132786
30
0.0
0
VERTEX
100
AcDbVertex
100
AcDb2dVertex
8
Layer01
10
76.752005
20
0.128053
30
0.0
0
VERTEX
100
AcDbVertex
100
AcDb2dVertex
8
Layer01
10
77.285006
20
0.123501
30
0.0
0
VERTEX
100
AcDbVertex
100
AcDb2dVertex
8
Layer01
10
77.818007
20
0.119086
30
0.0
0
VERTEX
100
AcDbVertex
100
AcDb2dVertex
8
Layer01
10
78.351008
20
0.11476
30
0.0
0
VERTEX
100
AcDbVertex
100
AcDb2dVertex
8
Layer01
10
78.884009
20
0.110482
30
0.0
0
VERTEX
100
AcDbVertex
100
AcDb2dVertex
8
Layer01
10
79.41701
20
0.10621
30
0.0
0
VERTEX
100
AcDbVertex
100
AcDb2dVertex
8
Layer01
10
80.483004
20
0.097047
30
0.0
0
VERTEX
100
AcDbVertex
100
AcDb2dVertex
8
Layer01
10
81.016005
20
0.092134
30
0.0
0
VERTEX
100
AcDbVertex
100
AcDb2dVertex
8
Layer01
10
81.549006
20
0.087186
30
0.0
0
VERTEX
100
AcDbVertex
100
AcDb2dVertex
8
Layer01
10
82.082007
20
0.082223
30
0.0
0
VERTEX
100
AcDbVertex
100
AcDb2dVertex
8
Layer01
10
82.615009
20
0.077267
30
0.0
0
VERTEX
100
AcDbVertex
100
AcDb2dVertex
8
Layer01
10
83.14801
20
0.072344
30
0.0
0
VERTEX
100
AcDbVertex
100
AcDb2dVertex
8
Layer01
10
83.681011
20
0.06748
30
0.0
0
VERTEX
100
AcDbVertex
100
AcDb2dVertex
8
Layer01
10
84.214012
20
0.062701
30
0.0
0
VERTEX
100
AcDbVertex
100
AcDb2dVertex
8
Layer01
10
84.747013
20
0.058037
30
0.0
0
VERTEX
100
AcDbVertex
100
AcDb2dVertex
8
Layer01
10
85.812999
20
0.049468
30
0.0
0
VERTEX
100
AcDbVertex
100
AcDb2dVertex
8
Layer01
10
86.346
20
0.04559
30
0.0
0
VERTEX
100
AcDbVertex
100
AcDb2dVertex
8
Layer01
10
86.879001
20
0.041878
30
0.0
0
VERTEX
100
AcDbVertex
100
AcDb2dVertex
8
Layer01
10
87.412002
20
0.038327
30
0.0
0
VERTEX
100
AcDbVertex
100
AcDb2dVertex
8
Layer01
10
87.945003
20
0.034933
30
0.0
0
VERTEX
100
AcDbVertex
100
AcDb2dVertex
8
Layer01
10
88.478005
20
0.031691
30
0.0
0
VERTEX
100
AcDbVertex
100
AcDb2dVertex
8
Layer01
10
89.011006
20
0.028594
30
0.0
0
VERTEX
100
AcDbVertex
100
AcDb2dVertex
8
Layer01
10
89.544007
20
0.025634
30
0.0
0
VERTEX
100
AcDbVertex
100
AcDb2dVertex
8
Layer01
10
90.077008
20
0.022804
30
0.0
0
VERTEX
100
AcDbVertex
100
AcDb2dVertex
8
Layer01
10
91.143002
20
0.017425
30
0.0
0
VERTEX
100
AcDbVertex
100
AcDb2dVertex
8
Layer01
10
91.676003
20
0.014865
30
0.0
0
VERTEX
100
AcDbVertex
100
AcDb2dVertex
8
Layer01
10
92.209004
20
0.012412
30
0.0
0
VERTEX
100
AcDbVertex
100
AcDb2dVertex
8
Layer01
10
92.742005
20
0.010064
30
0.0
0
VERTEX
100
AcDbVertex
100
AcDb2dVertex
8
Layer01
10
93.275006
20
0.007817
30
0.0
0
VERTEX
100
AcDbVertex
100
AcDb2dVertex
8
Layer01
10
93.808007
20
0.00567
30
0.0
0
VERTEX
100
AcDbVertex
100
AcDb2dVertex
8
Layer01
10
94.341009
20
0.003619
30
0.0
0
VERTEX
100
AcDbVertex
100
AcDb2dVertex
8
Layer01
10
94.87401
20
0.001664
30
0.0
0
VERTEX
100
AcDbVertex
100
AcDb2dVertex
8
Layer01
10
95.407011
20
-0.0002
30
0.0
0
VERTEX
100
AcDbVertex
100
AcDb2dVertex
8
Layer01
10
96.473005
20
-0.003622
30
0.0
0
VERTEX
100
AcDbVertex
100
AcDb2dVertex
8
Layer01
10
97.006006
20
-0.005187
30
0.0
0
VERTEX
100
AcDbVertex
100
AcDb2dVertex
8
Layer01
10
97.539007
20
-0.006673
30
0.0
0
VERTEX
100
AcDbVertex
100
AcDb2dVertex
8
Layer01
10
98.072008
20
-0.008084
30
0.0
0
VERTEX
100
AcDbVertex
100
AcDb2dVertex
8
Layer01
10
98.605009
20
-0.009423
30
0.0
0
VERTEX
100
AcDbVertex
100
AcDb2dVertex
8
Layer01
10
99.13801
20
-0.010694
30
0.0
0
VERTEX
100
AcDbVertex
100
AcDb2dVertex
8
Layer01
10
99.671011
20
-0.011899
30
0.0
0
VERTEX
100
AcDbVertex
100
AcDb2dVertex
8
Layer01
10
100.204012
20
-0.013041
30
0.0
0
VERTEX
100
AcDbVertex
100
AcDb2dVertex
8
Layer01
10
100.737014
20
-0.01412
30
0.0
0
VERTEX
100
AcDbVertex
100
AcDb2dVertex
8
Layer01
10
101.803
20
-0.01622
30
0.0
0
VERTEX
100
AcDbVertex
100
AcDb2dVertex
8
Layer01
10
102.336001
20
-0.017228
30
0.0
0
VERTEX
100
AcDbVertex
100
AcDb2dVertex
8
Layer01
10
102.869002
20
-0.018151
30
0.0
0
VERTEX
100
AcDbVertex
100
AcDb2dVertex
8
Layer01
10
103.402003
20
-0.018976
30
0.0
0
VERTEX
100
AcDbVertex
100
AcDb2dVertex
8
Layer01
10
103.935004
20
-0.019689
30
0.0
0
VERTEX
100
AcDbVertex
100
AcDb2dVertex
8
Layer01
10
104.468005
20
-0.020278
30
0.0
0
VERTEX
100
AcDbVertex
100
AcDb2dVertex
8
Layer01
10
105.001006
20
-0.020731
30
0.0
0
VERTEX
100
AcDbVertex
100
AcDb2dVertex
8
Layer01
10
105.534007
20
-0.021036
30
0.0
0
VERTEX
100
AcDbVertex
100
AcDb2dVertex
8
Layer01
10
106.067008
20
-0.021182
30
0.0
0
VERTEX
100
AcDbVertex
100
AcDb2dVertex
8
Layer01
10
107.133003
20
-0.020783
30
0.0
0
VERTEX
100
AcDbVertex
100
AcDb2dVertex
8
Layer01
10
107.666004
20
-0.020237
30
0.0
0
VERTEX
100
AcDbVertex
100
AcDb2dVertex
8
Layer01
10
108.199005
20
-0.01953
30
0.0
0
VERTEX
100
AcDbVertex
100
AcDb2dVertex
8
Layer01
10
108.732006
20
-0.018673
30
0.0
0
VERTEX
100
AcDbVertex
100
AcDb2dVertex
8
Layer01
10
109.265007
20
-0.017677
30
0.0
0
VERTEX
100
AcDbVertex
100
AcDb2dVertex
8
Layer01
10
109.798008
20
-0.016553
30
0.0
0
VERTEX
100
AcDbVertex
100
AcDb2dVertex
8
Layer01
10
110.331009
20
-0.015314
30
0.0
0
VERTEX
100
AcDbVertex
100
AcDb2dVertex
8
Layer01
10
110.86401
20
-0.013973
30
0.0
0
VERTEX
100
AcDbVertex
100
AcDb2dVertex
8
Layer01
10
111.397011
20
-0.012542
30
0.0
0
VERTEX
100
AcDbVertex
100
AcDb2dVertex
8
Layer01
10
112.462998
20
-0.009568
30
0.0
0
VERTEX
100
AcDbVertex
100
AcDb2dVertex
8
Layer01
10
112.995999
20
-0.008039
30
0.0
0
VERTEX
100
AcDbVertex
100
AcDb2dVertex
8
Layer01
10
113.529
20
-0.006451
30
0.0
0
VERTEX
100
AcDbVertex
100
AcDb2dVertex
8
Layer01
10
114.062001
20
-0.004803
30
0.0
0
VERTEX
100
AcDbVertex
100
AcDb2dVertex
8
Layer01
10
114.595002
20
-0.003097
30
0.0
0
VERTEX
100
AcDbVertex
100
AcDb2dVertex
8
Layer01
10
115.128003
20
-0.001335
30
0.0
0
VERTEX
100
AcDbVertex
100
AcDb2dVertex
8
Layer01
10
115.661004
20
0.000485
30
0.0
0
VERTEX
100
AcDbVertex
100
AcDb2dVertex
8
Layer01
10
116.194005
20
0.002362
30
0.0
0
VERTEX
100
AcDbVertex
100
AcDb2dVertex
8
Layer01
10
116.727006
20
0.004297
30
0.0
0
VERTEX
100
AcDbVertex
100
AcDb2dVertex
8
Layer01
10
117.793
20
0.008366
30
0.0
0
VERTEX
100
AcDbVertex
100
AcDb2dVertex
8
Layer01
10
118.326002
20
0.0105
30
0.0
0
VERTEX
100
AcDbVertex
100
AcDb2dVertex
8
Layer01
10
118.859003
20
0.01269
30
0.0
0
VERTEX
100
AcDbVertex
100
AcDb2dVertex
8
Layer01
10
119.392004
20
0.014935
30
0.0
0
VERTEX
100
AcDbVertex
100
AcDb2dVertex
8
Layer01
10
119.925005
20
0.017232
30
0.0
0
VERTEX
100
AcDbVertex
100
AcDb2dVertex
8
Layer01
10
120.458006
20
0.019582
30
0.0
0
VERTEX
100
AcDbVertex
100
AcDb2dVertex
8
Layer01
10
120.991007
20
0.021982
30
0.0
0
VERTEX
100
AcDbVertex
100
AcDb2dVertex
8
Layer01
10
121.524008
20
0.024432
30
0.0
0
VERTEX
100
AcDbVertex
100
AcDb2dVertex
8
Layer01
10
122.057009
20
0.02693
30
0.0
0
VERTEX
100
AcDbVertex
100
AcDb2dVertex
8
Layer01
10
123.123003
20
0.032063
30
0.0
0
VERTEX
100
AcDbVertex
100
AcDb2dVertex
8
Layer01
10
123.656004
20
0.034697
30
0.0
0
VERTEX
100
AcDbVertex
100
AcDb2dVertex
8
Layer01
10
124.189005
20
0.037375
30
0.0
0
VERTEX
100
AcDbVertex
100
AcDb2dVertex
8
Layer01
10
124.722007
20
0.040097
30
0.0
0
VERTEX
100
AcDbVertex
100
AcDb2dVertex
8
Layer01
10
125.255008
20
0.042861
30
0.0
0
VERTEX
100
AcDbVertex
100
AcDb2dVertex
8
Layer01
10
125.788009
20
0.045667
30
0.0
0
VERTEX
100
AcDbVertex
100
AcDb2dVertex
8
Layer01
10
126.32101
20
0.048515
30
0.0
0
VERTEX
100
AcDbVertex
100
AcDb2dVertex
8
Layer01
10
126.854011
20
0.051403
30
0.0
0
VERTEX
100
AcDbVertex
100
AcDb2dVertex
8
Layer01
10
127.387012
20
0.054331
30
0.0
0
VERTEX
100
AcDbVertex
100
AcDb2dVertex
8
Layer01
10
128.452998
20
0.060306
30
0.0
0
VERTEX
100
AcDbVertex
100
AcDb2dVertex
8
Layer01
10
128.985999
20
0.063351
30
0.0
0
VERTEX
100
AcDbVertex
100
AcDb2dVertex
8
Layer01
10
129.519
20
0.066434
30
0.0
0
VERTEX
100
AcDbVertex
100
AcDb2dVertex
8
Layer01
10
130.052001
20
0.069552
30
0.0
0
VERTEX
100
AcDbVertex
100
AcDb2dVertex
8
Layer01
10
130.585003
20
0.072704
30
0.0
0
VERTEX
100
AcDbVertex
100
AcDb2dVertex
8
Layer01
10
131.118004
20
0.075891
30
0.0
0
VERTEX
100
AcDbVertex
100
AcDb2dVertex
8
Layer01
10
131.651005
20
0.07911
30
0.0
0
VERTEX
100
AcDbVertex
100
AcDb2dVertex
8
Layer01
10
132.184006
20
0.082362
30
0.0
0
VERTEX
100
AcDbVertex
100
AcDb2dVertex
8
Layer01
10
132.717007
20
0.085645
30
0.0
0
VERTEX
100
AcDbVertex
100
AcDb2dVertex
8
Layer01
10
133.25
20
0.088958
30
0.0
0
VERTEX
100
AcDbVertex
100
AcDb2dVertex
8
Layer01
10
133.782993
20
0.092298
30
0.0
0
VERTEX
100
AcDbVertex
100
AcDb2dVertex
8
Layer01
10
134.315986
20
0.095668
30
0.0
0
VERTEX
100
AcDbVertex
100
AcDb2dVertex
8
Layer01
10
134.848979
20
0.099066
30
0.0
0
VERTEX
100
AcDbVertex
100
AcDb2dVertex
8
Layer01
10
135.381973
20
0.102491
30
0.0
0
VERTEX
100
AcDbVertex
100
AcDb2dVertex
8
Layer01
10
135.914966
20
0.105945
30
0.0
0
VERTEX
100
AcDbVertex
100
AcDb2dVertex
8
Layer01
10
136.447959
20
0.109424
30
0.0
0
VERTEX
100
AcDbVertex
100
AcDb2dVertex
8
Layer01
10
136.980952
20
0.112931
30
0.0
0
VERTEX
100
AcDbVertex
100
AcDb2dVertex
8
Layer01
10
137.513945
20
0.116463
30
0.0
0
VERTEX
100
AcDbVertex
100
AcDb2dVertex
8
Layer01
10
138.046938
20
0.12002
30
0.0
0
VERTEX
100
AcDbVertex
100
AcDb2dVertex
8
Layer01
10
138.579931
20
0.123602
30
0.0
0
VERTEX
100
AcDbVertex
100
AcDb2dVertex
8
Layer01
10
139.112988
20
0.127211
30
0.0
0
VERTEX
100
AcDbVertex
100
AcDb2dVertex
8
Layer01
10
139.645981
20
0.130843
30
0.0
0
VERTEX
100
AcDbVertex
100
AcDb2dVertex
8
Layer01
10
140.178974
20
0.134498
30
0.0
0
VERTEX
100
AcDbVertex
100
AcDb2dVertex
8
Layer01
10
140.711967
20
0.138177
30
0.0
0
VERTEX
100
AcDbVertex
100
AcDb2dVertex
8
Layer01
10
141.244961
20
0.141877
30
0.0
0
VERTEX
100
AcDbVertex
100
AcDb2dVertex
8
Layer01
10
141.777954
20
0.1456
30
0.0
0
VERTEX
100
AcDbVertex
100
AcDb2dVertex
8
Layer01
10
142.310947
20
0.149344
30
0.0
0
VERTEX
100
AcDbVertex
100
AcDb2dVertex
8
Layer01
10
142.84394
20
0.153109
30
0.0
0
VERTEX
100
AcDbVertex
100
AcDb2dVertex
8
Layer01
10
143.376933
20
0.156894
30
0.0
0
VERTEX
100
AcDbVertex
100
AcDb2dVertex
8
Layer01
10
143.909926
20
0.160699
30
0.0
0
VERTEX
100
AcDbVertex
100
AcDb2dVertex
8
Layer01
10
144.442999
20
0.164523
30
0.0
0
VERTEX
100
AcDbVertex
100
AcDb2dVertex
8
Layer01
10
144.975992
20
0.168366
30
0.0
0
VERTEX
100
AcDbVertex
100
AcDb2dVertex
8
Layer01
10
145.508985
20
0.172227
30
0.0
0
VERTEX
100
AcDbVertex
100
AcDb2dVertex
8
Layer01
10
146.041978
20
0.176108
30
0.0
0
VERTEX
100
AcDbVertex
100
AcDb2dVertex
8
Layer01
10
146.574971
20
0.180006
30
0.0
0
VERTEX
100
AcDbVertex
100
AcDb2dVertex
8
Layer01
10
147.107965
20
0.183923
30
0.0
0
VERTEX
100
AcDbVertex
100
AcDb2dVertex
8
Layer01
10
147.640958
20
0.187858
30
0.0
0
VERTEX
100
AcDbVertex
100
AcDb2dVertex
8
Layer01
10
148.173951
20
0.191811
30
0.0
0
VERTEX
100
AcDbVertex
100
AcDb2dVertex
8
Layer01
10
148.706944
20
0.195781
30
0.0
0
VERTEX
100
AcDbVertex
100
AcDb2dVertex
8
Layer01
10
149.239937
20
0.199768
30
0.0
0
VERTEX
100
AcDbVertex
100
AcDb2dVertex
8
Layer01
10
149.772994
20
0.20379
30
0.0
0
VERTEX
100
AcDbVertex
100
AcDb2dVertex
8
Layer01
10
150.305987
20
0.207826
30
0.0
0
VERTEX
100
AcDbVertex
100
AcDb2dVertex
8
Layer01
10
150.83898
20
0.211877
30
0.0
0
VERTEX
100
AcDbVertex
100
AcDb2dVertex
8
Layer01
10
151.371973
20
0.215941
30
0.0
0
VERTEX
100
AcDbVertex
100
AcDb2dVertex
8
Layer01
10
151.904966
20
0.220016
30
0.0
0
VERTEX
100
AcDbVertex
100
AcDb2dVertex
8
Layer01
10
152.437959
20
0.224102
30
0.0
0
VERTEX
100
AcDbVertex
100
AcDb2dVertex
8
Layer01
10
152.970953
20
0.228198
30
0.0
0
VERTEX
100
AcDbVertex
100
AcDb2dVertex
8
Layer01
10
153.503946
20
0.232303
30
0.0
0
VERTEX
100
AcDbVertex
100
AcDb2dVertex
8
Layer01
10
154.036939
20
0.236418
30
0.0
0
VERTEX
100
AcDbVertex
100
AcDb2dVertex
8
Layer01
10
154.569932
20
0.240542
30
0.0
0
VERTEX
100
AcDbVertex
100
AcDb2dVertex
8
Layer01
10
155.102989
20
0.244613
30
0.0
0
VERTEX
100
AcDbVertex
100
AcDb2dVertex
8
Layer01
10
155.635982
20
0.2487
30
0.0
0
VERTEX
100
AcDbVertex
100
AcDb2dVertex
8
Layer01
10
156.168975
20
0.25281
30
0.0
0
VERTEX
100
AcDbVertex
100
AcDb2dVertex
8
Layer01
10
156.701968
20
0.256949
30
0.0
0
VERTEX
100
AcDbVertex
100
AcDb2dVertex
8
Layer01
10
157.234961
20
0.261123
30
0.0
0
VERTEX
100
AcDbVertex
100
AcDb2dVertex
8
Layer01
10
157.767954
20
0.265341
30
0.0
0
VERTEX
100
AcDbVertex
100
AcDb2dVertex
8
Layer01
10
158.300948
20
0.269607
30
0.0
0
VERTEX
100
AcDbVertex
100
AcDb2dVertex
8
Layer01
10
158.833941
20
0.273928
30
0.0
0
VERTEX
100
AcDbVertex
100
AcDb2dVertex
8
Layer01
10
159.366934
20
0.27831
30
0.0
0
VERTEX
100
AcDbVertex
100
AcDb2dVertex
8
Layer01
10
159.899927
20
0.282756
30
0.0
0
VERTEX
100
AcDbVertex
100
AcDb2dVertex
8
Layer01
10
160.432999
20
0.287367
30
0.0
0
VERTEX
100
AcDbVertex
100
AcDb2dVertex
8
Layer01
10
160.965993
20
0.292042
30
0.0
0
VERTEX
100
AcDbVertex
100
AcDb2dVertex
8
Layer01
10
161.498986
20
0.296776
30
0.0
0
VERTEX
100
AcDbVertex
100
AcDb2dVertex
8
Layer01
10
162.031979
20
0.301564
30
0.0
0
VERTEX
100
AcDbVertex
100
AcDb2dVertex
8
Layer01
10
162.564972
20
0.306399
30
0.0
0
VERTEX
100
AcDbVertex
100
AcDb2dVertex
8
Layer01
10
163.097965
20
0.311275
30
0.0
0
VERTEX
100
AcDbVertex
100
AcDb2dVertex
8
Layer01
10
163.630958
20
0.316185
30
0.0
0
VERTEX
100
AcDbVertex
100
AcDb2dVertex
8
Layer01
10
164.163951
20
0.321121
30
0.0
0
VERTEX
100
AcDbVertex
100
AcDb2dVertex
8
Layer01
10
164.696945
20
0.326077
30
0.0
0
VERTEX
100
AcDbVertex
100
AcDb2dVertex
8
Layer01
10
165.229938
20
0.331046
30
0.0
0
VERTEX
100
AcDbVertex
100
AcDb2dVertex
8
Layer01
10
165.762994
20
0.335958
30
0.0
0
VERTEX
100
AcDbVertex
100
AcDb2dVertex
8
Layer01
10
166.295988
20
0.340875
30
0.0
0
VERTEX
100
AcDbVertex
100
AcDb2dVertex
8
Layer01
10
166.828981
20
0.345796
30
0.0
0
VERTEX
100
AcDbVertex
100
AcDb2dVertex
8
Layer01
10
167.361974
20
0.350721
30
0.0
0
VERTEX
100
AcDbVertex
100
AcDb2dVertex
8
Layer01
10
167.894967
20
0.355649
30
0.0
0
VERTEX
100
AcDbVertex
100
AcDb2dVertex
8
Layer01
10
168.42796
20
0.36058
30
0.0
0
VERTEX
100
AcDbVertex
100
AcDb2dVertex
8
Layer01
10
168.960953
20
0.365515
30
0.0
0
VERTEX
100
AcDbVertex
100
AcDb2dVertex
8
Layer01
10
169.493946
20
0.370454
30
0.0
0
VERTEX
100
AcDbVertex
100
AcDb2dVertex
8
Layer01
10
170.02694
20
0.375398
30
0.0
0
VERTEX
100
AcDbVertex
100
AcDb2dVertex
8
Layer01
10
170.559933
20
0.380348
30
0.0
0
VERTEX
100
AcDbVertex
100
AcDb2dVertex
8
Layer01
10
171.092989
20
0.38532
30
0.0
0
VERTEX
100
AcDbVertex
100
AcDb2dVertex
8
Layer01
10
171.625982
20
0.390298
30
0.0
0
VERTEX
100
AcDbVertex
100
AcDb2dVertex
8
Layer01
10
172.158976
20
0.395281
30
0.0
0
VERTEX
100
AcDbVertex
100
AcDb2dVertex
8
Layer01
10
172.691969
20
0.40027
30
0.0
0
VERTEX
100
AcDbVertex
100
AcDb2dVertex
8
Layer01
10
173.224962
20
0.405263
30
0.0
0
VERTEX
100
AcDbVertex
100
AcDb2dVertex
8
Layer01
10
173.757955
20
0.410261
30
0.0
0
VERTEX
100
AcDbVertex
100
AcDb2dVertex
8
Layer01
10
174.290948
20
0.415263
30
0.0
0
VERTEX
100
AcDbVertex
100
AcDb2dVertex
8
Layer01
10
174.823941
20
0.420269
30
0.0
0
VERTEX
100
AcDbVertex
100
AcDb2dVertex
8
Layer01
10
175.356934
20
0.425278
30
0.0
0
VERTEX
100
AcDbVertex
100
AcDb2dVertex
8
Layer01
10
175.889928
20
0.43029
30
0.0
0
VERTEX
100
AcDbVertex
100
AcDb2dVertex
8
Layer01
10
176.423
20
0.435305
30
0.0
0
VERTEX
100
AcDbVertex
100
AcDb2dVertex
8
Layer01
10
176.955993
20
0.440322
30
0.0
0
VERTEX
100
AcDbVertex
100
AcDb2dVertex
8
Layer01
10
177.488986
20
0.44534
30
0.0
0
VERTEX
100
AcDbVertex
100
AcDb2dVertex
8
Layer01
10
178.02198
20
0.45036
30
0.0
0
VERTEX
100
AcDbVertex
100
AcDb2dVertex
8
Layer01
10
178.554973
20
0.455382
30
0.0
0
VERTEX
100
AcDbVertex
100
AcDb2dVertex
8
Layer01
10
179.087966
20
0.460404
30
0.0
0
VERTEX
100
AcDbVertex
100
AcDb2dVertex
8
Layer01
10
179.620959
20
0.465427
30
0.0
0
VERTEX
100
AcDbVertex
100
AcDb2dVertex
8
Layer01
10
180.153952
20
0.470451
30
0.0
0
VERTEX
100
AcDbVertex
100
AcDb2dVertex
8
Layer01
10
180.686945
20
0.475475
30
0.0
0
VERTEX
100
AcDbVertex
100
AcDb2dVertex
8
Layer01
10
181.219938
20
0.480499
30
0.0
0
VERTEX
100
AcDbVertex
100
AcDb2dVertex
8
Layer01
10
181.752995
20
0.485524
30
0.0
0
VERTEX
100
AcDbVertex
100
AcDb2dVertex
8
Layer01
10
182.285988
20
0.490548
30
0.0
0
VERTEX
100
AcDbVertex
100
AcDb2dVertex
8
Layer01
10
182.818981
20
0.49557
30
0.0
0
VERTEX
100
AcDbVertex
100
AcDb2dVertex
8
Layer01
10
183.351974
20
0.50059
30
0.0
0
VERTEX
100
AcDbVertex
100
AcDb2dVertex
8
Layer01
10
183.884968
20
0.505609
30
0.0
0
VERTEX
100
AcDbVertex
100
AcDb2dVertex
8
Layer01
10
184.417961
20
0.510624
30
0.0
0
VERTEX
100
AcDbVertex
100
AcDb2dVertex
8
Layer01
10
184.950954
20
0.515637
30
0.0
0
VERTEX
100
AcDbVertex
100
AcDb2dVertex
8
Layer01
10
185.483947
20
0.520647
30
0.0
0
VERTEX
100
AcDbVertex
100
AcDb2dVertex
8
Layer01
10
186.01694
20
0.525653
30
0.0
0
VERTEX
100
AcDbVertex
100
AcDb2dVertex
8
Layer01
10
186.549933
20
0.530654
30
0.0
0
VERTEX
100
AcDbVertex
100
AcDb2dVertex
8
Layer01
10
187.08299
20
0.53565
30
0.0
0
VERTEX
100
AcDbVertex
100
AcDb2dVertex
8
Layer01
10
187.615983
20
0.54064
30
0.0
0
VERTEX
100
AcDbVertex
100
AcDb2dVertex
8
Layer01
10
188.148976
20
0.545626
30
0.0
0
VERTEX
100
AcDbVertex
100
AcDb2dVertex
8
Layer01
10
188.681969
20
0.550607
30
0.0
0
VERTEX
100
AcDbVertex
100
AcDb2dVertex
8
Layer01
10
189.214963
20
0.555583
30
0.0
0
VERTEX
100
AcDbVertex
100
AcDb2dVertex
8
Layer01
10
189.747956
20
0.560554
30
0.0
0
VERTEX
100
AcDbVertex
100
AcDb2dVertex
8
Layer01
10
190.280949
20
0.565519
30
0.0
0
VERTEX
100
AcDbVertex
100
AcDb2dVertex
8
Layer01
10
190.813942
20
0.570479
30
0.0
0
VERTEX
100
AcDbVertex
100
AcDb2dVertex
8
Layer01
10
191.346935
20
0.575434
30
0.0
0
VERTEX
100
AcDbVertex
100
AcDb2dVertex
8
Layer01
10
191.879928
20
0.580383
30
0.0
0
VERTEX
100
AcDbVertex
100
AcDb2dVertex
8
Layer01
10
192.413001
20
0.585329
30
0.0
0
VERTEX
100
AcDbVertex
100
AcDb2dVertex
8
Layer01
10
192.945994
20
0.590269
30
0.0
0
VERTEX
100
AcDbVertex
100
AcDb2dVertex
8
Layer01
10
193.478987
20
0.595202
30
0.0
0
VERTEX
100
AcDbVertex
100
AcDb2dVertex
8
Layer01
10
194.01198
20
0.600129
30
0.0
0
VERTEX
100
AcDbVertex
100
AcDb2dVertex
8
Layer01
10
194.544973
20
0.605048
30
0.0
0
VERTEX
100
AcDbVertex
100
AcDb2dVertex
8
Layer01
10
195.077966
20
0.60996
30
0.0
0
VERTEX
100
AcDbVertex
100
AcDb2dVertex
8
Layer01
10
195.61096
20
0.614864
30
0.0
0
VERTEX
100
AcDbVertex
100
AcDb2dVertex
8
Layer01
10
196.143953
20
0.61976
30
0.0
0
VERTEX
100
AcDbVertex
100
AcDb2dVertex
8
Layer01
10
196.676946
20
0.624647
30
0.0
0
VERTEX
100
AcDbVertex
100
AcDb2dVertex
8
Layer01
10
197.209939
20
0.629526
30
0.0
0
VERTEX
100
AcDbVertex
100
AcDb2dVertex
8
Layer01
10
197.742996
20
0.634394
30
0.0
0
VERTEX
100
AcDbVertex
100
AcDb2dVertex
8
Layer01
10
198.275989
20
0.639252
30
0.0
0
VERTEX
100
AcDbVertex
100
AcDb2dVertex
8
Layer01
10
198.808982
20
0.644101
30
0.0
0
VERTEX
100
AcDbVertex
100
AcDb2dVertex
8
Layer01
10
199.341975
20
0.64894
30
0.0
0
VERTEX
100
AcDbVertex
100
AcDb2dVertex
8
Layer01
10
199.874968
20
0.653769
30
0.0
0
VERTEX
100
AcDbVertex
100
AcDb2dVertex
8
Layer01
10
200.407961
20
0.658588
30
0.0
0
VERTEX
100
AcDbVertex
100
AcDb2dVertex
8
Layer01
10
200.940955
20
0.663397
30
0.0
0
VERTEX
100
AcDbVertex
100
AcDb2dVertex
8
Layer01
10
201.473948
20
0.668196
30
0.0
0
VERTEX
100
AcDbVertex
100
AcDb2dVertex
8
Layer01
10
202.006941
20
0.672984
30
0.0
0
VERTEX
100
AcDbVertex
100
AcDb2dVertex
8
Layer01
10
202.539934
20
0.677762
30
0.0
0
VERTEX
100
AcDbVertex
100
AcDb2dVertex
8
Layer01
10
203.072991
20
0.682532
30
0.0
0
VERTEX
100
AcDbVertex
100
AcDb2dVertex
8
Layer01
10
203.605984
20
0.68729
30
0.0
0
VERTEX
100
AcDbVertex
100
AcDb2dVertex
8
Layer01
10
204.138977
20
0.692037
30
0.0
0
VERTEX
100
AcDbVertex
100
AcDb2dVertex
8
Layer01
10
204.67197
20
0.696773
30
0.0
0
VERTEX
100
AcDbVertex
100
AcDb2dVertex
8
Layer01
10
205.204963
20
0.701497
30
0.0
0
VERTEX
100
AcDbVertex
100
AcDb2dVertex
8
Layer01
10
205.737956
20
0.706209
30
0.0
0
VERTEX
100
AcDbVertex
100
AcDb2dVertex
8
Layer01
10
206.270949
20
0.710909
30
0.0
0
VERTEX
100
AcDbVertex
100
AcDb2dVertex
8
Layer01
10
206.803943
20
0.715596
30
0.0
0
VERTEX
100
AcDbVertex
100
AcDb2dVertex
8
Layer01
10
207.336936
20
0.720271
30
0.0
0
VERTEX
100
AcDbVertex
100
AcDb2dVertex
8
Layer01
10
207.869929
20
0.724933
30
0.0
0
VERTEX
100
AcDbVertex
100
AcDb2dVertex
8
Layer01
10
208.402986
20
0.729579
30
0.0
0
VERTEX
100
AcDbVertex
100
AcDb2dVertex
8
Layer01
10
208.935979
20
0.734212
30
0.0
0
VERTEX
100
AcDbVertex
100
AcDb2dVertex
8
Layer01
10
209.468972
20
0.738832
30
0.0
0
VERTEX
100
AcDbVertex
100
AcDb2dVertex
8
Layer01
10
210.001965
20
0.74344
30
0.0
0
VERTEX
100
AcDbVertex
100
AcDb2dVertex
8
Layer01
10
210.534958
20
0.748035
30
0.0
0
VERTEX
100
AcDbVertex
100
AcDb2dVertex
8
Layer01
10
211.067951
20
0.752617
30
0.0
0
VERTEX
100
AcDbVertex
100
AcDb2dVertex
8
Layer01
10
211.600944
20
0.757187
30
0.0
0
VERTEX
100
AcDbVertex
100
AcDb2dVertex
8
Layer01
10
212.133937
20
0.761745
30
0.0
0
VERTEX
100
AcDbVertex
100
AcDb2dVertex
8
Layer01
10
212.666931
20
0.76629
30
0.0
0
VERTEX
100
AcDbVertex
100
AcDb2dVertex
8
Layer01
10
213.199924
20
0.770824
30
0.0
0
VERTEX
100
AcDbVertex
100
AcDb2dVertex
8
Layer01
10
213.732996
20
0.775349
30
0.0
0
VERTEX
100
AcDbVertex
100
AcDb2dVertex
8
Layer01
10
214.265989
20
0.779862
30
0.0
0
VERTEX
100
AcDbVertex
100
AcDb2dVertex
8
Layer01
10
214.798983
20
0.784362
30
0.0
0
VERTEX
100
AcDbVertex
100
AcDb2dVertex
8
Layer01
10
215.331976
20
0.788849
30
0.0
0
VERTEX
100
AcDbVertex
100
AcDb2dVertex
8
Layer01
10
215.864969
20
0.793324
30
0.0
0
VERTEX
100
AcDbVertex
100
AcDb2dVertex
8
Layer01
10
216.397962
20
0.797785
30
0.0
0
VERTEX
100
AcDbVertex
100
AcDb2dVertex
8
Layer01
10
216.930955
20
0.802232
30
0.0
0
VERTEX
100
AcDbVertex
100
AcDb2dVertex
8
Layer01
10
217.463948
20
0.806666
30
0.0
0
VERTEX
100
AcDbVertex
100
AcDb2dVertex
8
Layer01
10
217.996941
20
0.811085
30
0.0
0
VERTEX
100
AcDbVertex
100
AcDb2dVertex
8
Layer01
10
218.529935
20
0.815489
30
0.0
0
VERTEX
100
AcDbVertex
100
AcDb2dVertex
8
Layer01
10
219.062991
20
0.819879
30
0.0
0
VERTEX
100
AcDbVertex
100
AcDb2dVertex
8
Layer01
10
219.595984
20
0.824252
30
0.0
0
VERTEX
100
AcDbVertex
100
AcDb2dVertex
8
Layer01
10
220.128978
20
0.82861
30
0.0
0
VERTEX
100
AcDbVertex
100
AcDb2dVertex
8
Layer01
10
220.661971
20
0.832952
30
0.0
0
VERTEX
100
AcDbVertex
100
AcDb2dVertex
8
Layer01
10
221.194964
20
0.837279
30
0.0
0
VERTEX
100
AcDbVertex
100
AcDb2dVertex
8
Layer01
10
221.727957
20
0.841589
30
0.0
0
VERTEX
100
AcDbVertex
100
AcDb2dVertex
8
Layer01
10
222.26095
20
0.845882
30
0.0
0
VERTEX
100
AcDbVertex
100
AcDb2dVertex
8
Layer01
10
222.793943
20
0.850159
30
0.0
0
VERTEX
100
AcDbVertex
100
AcDb2dVertex
8
Layer01
10
223.326936
20
0.854419
30
0.0
0
VERTEX
100
AcDbVertex
100
AcDb2dVertex
8
Layer01
10
223.859929
20
0.858662
30
0.0
0
VERTEX
100
AcDbVertex
100
AcDb2dVertex
8
Layer01
10
224.392986
20
0.862888
30
0.0
0
VERTEX
100
AcDbVertex
100
AcDb2dVertex
8
Layer01
10
224.925979
20
0.867096
30
0.0
0
VERTEX
100
AcDbVertex
100
AcDb2dVertex
8
Layer01
10
225.458972
20
0.871286
30
0.0
0
VERTEX
100
AcDbVertex
100
AcDb2dVertex
8
Layer01
10
225.991966
20
0.875459
30
0.0
0
VERTEX
100
AcDbVertex
100
AcDb2dVertex
8
Layer01
10
226.524959
20
0.879615
30
0.0
0
VERTEX
100
AcDbVertex
100
AcDb2dVertex
8
Layer01
10
227.057952
20
0.883753
30
0.0
0
VERTEX
100
AcDbVertex
100
AcDb2dVertex
8
Layer01
10
227.590945
20
0.887873
30
0.0
0
VERTEX
100
AcDbVertex
100
AcDb2dVertex
8
Layer01
10
228.123938
20
0.891976
30
0.0
0
VERTEX
100
AcDbVertex
100
AcDb2dVertex
8
Layer01
10
228.656931
20
0.896062
30
0.0
0
VERTEX
100
AcDbVertex
100
AcDb2dVertex
8
Layer01
10
229.189924
20
0.90013
30
0.0
0
VERTEX
100
AcDbVertex
100
AcDb2dVertex
8
Layer01
10
229.722997
20
0.904181
30
0.0
0
VERTEX
100
AcDbVertex
100
AcDb2dVertex
8
Layer01
10
230.25599
20
0.908214
30
0.0
0
VERTEX
100
AcDbVertex
100
AcDb2dVertex
8
Layer01
10
230.788983
20
0.912229
30
0.0
0
VERTEX
100
AcDbVertex
100
AcDb2dVertex
8
Layer01
10
231.321976
20
0.916227
30
0.0
0
VERTEX
100
AcDbVertex
100
AcDb2dVertex
8
Layer01
10
231.85497
20
0.920207
30
0.0
0
VERTEX
100
AcDbVertex
100
AcDb2dVertex
8
Layer01
10
232.387963
20
0.924169
30
0.0
0
VERTEX
100
AcDbVertex
100
AcDb2dVertex
8
Layer01
10
232.920956
20
0.928113
30
0.0
0
VERTEX
100
AcDbVertex
100
AcDb2dVertex
8
Layer01
10
233.453949
20
0.93204
30
0.0
0
VERTEX
100
AcDbVertex
100
AcDb2dVertex
8
Layer01
10
233.986942
20
0.935948
30
0.0
0
VERTEX
100
AcDbVertex
100
AcDb2dVertex
8
Layer01
10
234.519935
20
0.939838
30
0.0
0
VERTEX
100
AcDbVertex
100
AcDb2dVertex
8
Layer01
10
235.052992
20
0.943712
30
0.0
0
VERTEX
100
AcDbVertex
100
AcDb2dVertex
8
Layer01
10
235.585985
20
0.947567
30
0.0
0
VERTEX
100
AcDbVertex
100
AcDb2dVertex
8
Layer01
10
236.118978
20
0.951403
30
0.0
0
VERTEX
100
AcDbVertex
100
AcDb2dVertex
8
Layer01
10
236.651971
20
0.955221
30
0.0
0
VERTEX
100
AcDbVertex
100
AcDb2dVertex
8
Layer01
10
237.184964
20
0.959021
30
0.0
0
VERTEX
100
AcDbVertex
100
AcDb2dVertex
8
Layer01
10
237.717958
20
0.962801
30
0.0
0
VERTEX
100
AcDbVertex
100
AcDb2dVertex
8
Layer01
10
238.250951
20
0.966563
30
0.0
0
VERTEX
100
AcDbVertex
100
AcDb2dVertex
8
Layer01
10
238.783944
20
0.970306
30
0.0
0
VERTEX
100
AcDbVertex
100
AcDb2dVertex
8
Layer01
10
239.316937
20
0.97403
30
0.0
0
VERTEX
100
AcDbVertex
100
AcDb2dVertex
8
Layer01
10
239.84993
20
0.977735
30
0.0
0
VERTEX
100
AcDbVertex
100
AcDb2dVertex
8
Layer01
10
240.382987
20
0.98142
30
0.0
0
VERTEX
100
AcDbVertex
100
AcDb2dVertex
8
Layer01
10
240.91598
20
0.985085
30
0.0
0
VERTEX
100
AcDbVertex
100
AcDb2dVertex
8
Layer01
10
241.448973
20
0.98873
30
0.0
0
VERTEX
100
AcDbVertex
100
AcDb2dVertex
8
Layer01
10
241.981966
20
0.992357
30
0.0
0
VERTEX
100
AcDbVertex
100
AcDb2dVertex
8
Layer01
10
242.514959
20
0.995964
30
0.0
0
VERTEX
100
AcDbVertex
100
AcDb2dVertex
8
Layer01
10
243.047952
20
0.999552
30
0.0
0
VERTEX
100
AcDbVertex
100
AcDb2dVertex
8
Layer01
10
243.580946
20
1.003121
30
0.0
0
VERTEX
100
AcDbVertex
100
AcDb2dVertex
8
Layer01
10
244.113939
20
1.006671
30
0.0
0
VERTEX
100
AcDbVertex
100
AcDb2dVertex
8
Layer01
10
244.646932
20
1.010201
30
0.0
0
VERTEX
100
AcDbVertex
100
AcDb2dVertex
8
Layer01
10
245.179925
20
1.013712
30
0.0
0
VERTEX
100
AcDbVertex
100
AcDb2dVertex
8
Layer01
10
245.712998
20
1.017206
30
0.0
0
VERTEX
100
AcDbVertex
100
AcDb2dVertex
8
Layer01
10
246.245991
20
1.02068
30
0.0
0
VERTEX
100
AcDbVertex
100
AcDb2dVertex
8
Layer01
10
246.778984
20
1.024134
30
0.0
0
VERTEX
100
AcDbVertex
100
AcDb2dVertex
8
Layer01
10
247.311977
20
1.02757
30
0.0
0
VERTEX
100
AcDbVertex
100
AcDb2dVertex
8
Layer01
10
247.84497
20
1.030986
30
0.0
0
VERTEX
100
AcDbVertex
100
AcDb2dVertex
8
Layer01
10
248.377963
20
1.034382
30
0.0
0
VERTEX
100
AcDbVertex
100
AcDb2dVertex
8
Layer01
10
248.910956
20
1.037759
30
0.0
0
VERTEX
100
AcDbVertex
100
AcDb2dVertex
8
Layer01
10
249.44395
20
1.041116
30
0.0
0
VERTEX
100
AcDbVertex
100
AcDb2dVertex
8
Layer01
10
249.976943
20
1.044453
30
0.0
0
VERTEX
100
AcDbVertex
100
AcDb2dVertex
8
Layer01
10
250.509936
20
1.047771
30
0.0
0
VERTEX
100
AcDbVertex
100
AcDb2dVertex
8
Layer01
10
251.042993
20
1.051068
30
0.0
0
VERTEX
100
AcDbVertex
100
AcDb2dVertex
8
Layer01
10
251.575986
20
1.054345
30
0.0
0
VERTEX
100
AcDbVertex
100
AcDb2dVertex
8
Layer01
10
252.108979
20
1.057602
30
0.0
0
VERTEX
100
AcDbVertex
100
AcDb2dVertex
8
Layer01
10
252.641972
20
1.06084
30
0.0
0
VERTEX
100
AcDbVertex
100
AcDb2dVertex
8
Layer01
10
253.174965
20
1.064058
30
0.0
0
VERTEX
100
AcDbVertex
100
AcDb2dVertex
8
Layer01
10
253.707958
20
1.067256
30
0.0
0
VERTEX
100
AcDbVertex
100
AcDb2dVertex
8
Layer01
10
254.240951
20
1.070435
30
0.0
0
VERTEX
100
AcDbVertex
100
AcDb2dVertex
8
Layer01
10
254.773944
20
1.073595
30
0.0
0
VERTEX
100
AcDbVertex
100
AcDb2dVertex
8
Layer01
10
255.306938
20
1.076736
30
0.0
0
VERTEX
100
AcDbVertex
100
AcDb2dVertex
8
Layer01
10
255.839931
20
1.079858
30
0.0
0
VERTEX
100
AcDbVertex
100
AcDb2dVertex
8
Layer01
10
256.372987
20
1.082957
30
0.0
0
VERTEX
100
AcDbVertex
100
AcDb2dVertex
8
Layer01
10
256.905981
20
1.086036
30
0.0
0
VERTEX
100
AcDbVertex
100
AcDb2dVertex
8
Layer01
10
257.438974
20
1.089098
30
0.0
0
VERTEX
100
AcDbVertex
100
AcDb2dVertex
8
Layer01
10
257.971967
20
1.092141
30
0.0
0
VERTEX
100
AcDbVertex
100
AcDb2dVertex
8
Layer01
10
258.50496
20
1.095166
30
0.0
0
VERTEX
100
AcDbVertex
100
AcDb2dVertex
8
Layer01
10
259.037953
20
1.098174
30
0.0
0
VERTEX
100
AcDbVertex
100
AcDb2dVertex
8
Layer01
10
259.570946
20
1.101163
30
0.0
0
VERTEX
100
AcDbVertex
100
AcDb2dVertex
8
Layer01
10
260.103939
20
1.104135
30
0.0
0
VERTEX
100
AcDbVertex
100
AcDb2dVertex
8
Layer01
10
260.636933
20
1.107089
30
0.0
0
VERTEX
100
AcDbVertex
100
AcDb2dVertex
8
Layer01
10
261.169926
20
1.110025
30
0.0
0
VERTEX
100
AcDbVertex
100
AcDb2dVertex
8
Layer01
10
261.702998
20
1.112964
30
0.0
0
VERTEX
100
AcDbVertex
100
AcDb2dVertex
8
Layer01
10
262.235991
20
1.115881
30
0.0
0
VERTEX
100
AcDbVertex
100
AcDb2dVertex
8
Layer01
10
262.768984
20
1.118776
30
0.0
0
VERTEX
100
AcDbVertex
100
AcDb2dVertex
8
Layer01
10
263.301978
20
1.121645
30
0.0
0
VERTEX
100
AcDbVertex
100
AcDb2dVertex
8
Layer01
10
263.834971
20
1.124488
30
0.0
0
VERTEX
100
AcDbVertex
100
AcDb2dVertex
8
Layer01
10
264.367964
20
1.127301
30
0.0
0
VERTEX
100
AcDbVertex
100
AcDb2dVertex
8
Layer01
10
264.900957
20
1.130083
30
0.0
0
VERTEX
100
AcDbVertex
100
AcDb2dVertex
8
Layer01
10
265.43395
20
1.132831
30
0.0
0
VERTEX
100
AcDbVertex
100
AcDb2dVertex
8
Layer01
10
265.966943
20
1.135545
30
0.0
0
VERTEX
100
AcDbVertex
100
AcDb2dVertex
8
Layer01
10
266.499936
20
1.138221
30
0.0
0
VERTEX
100
AcDbVertex
100
AcDb2dVertex
8
Layer01
10
267.032993
20
1.140828
30
0.0
0
VERTEX
100
AcDbVertex
100
AcDb2dVertex
8
Layer01
10
267.565986
20
1.143399
30
0.0
0
VERTEX
100
AcDbVertex
100
AcDb2dVertex
8
Layer01
10
268.098979
20
1.145934
30
0.0
0
VERTEX
100
AcDbVertex
100
AcDb2dVertex
8
Layer01
10
268.631973
20
1.148437
30
0.0
0
VERTEX
100
AcDbVertex
100
AcDb2dVertex
8
Layer01
10
269.164966
20
1.15091
30
0.0
0
VERTEX
100
AcDbVertex
100
AcDb2dVertex
8
Layer01
10
269.697959
20
1.153355
30
0.0
0
VERTEX
100
AcDbVertex
100
AcDb2dVertex
8
Layer01
10
270.230952
20
1.155773
30
0.0
0
VERTEX
100
AcDbVertex
100
AcDb2dVertex
8
Layer01
10
270.763945
20
1.158169
30
0.0
0
VERTEX
100
AcDbVertex
100
AcDb2dVertex
8
Layer01
10
271.296938
20
1.160543
30
0.0
0
VERTEX
100
AcDbVertex
100
AcDb2dVertex
8
Layer01
10
271.829931
20
1.162899
30
0.0
0
VERTEX
100
AcDbVertex
100
AcDb2dVertex
8
Layer01
10
272.362988
20
1.16526
30
0.0
0
VERTEX
100
AcDbVertex
100
AcDb2dVertex
8
Layer01
10
272.895981
20
1.167606
30
0.0
0
VERTEX
100
AcDbVertex
100
AcDb2dVertex
8
Layer01
10
273.428974
20
1.169936
30
0.0
0
VERTEX
100
AcDbVertex
100
AcDb2dVertex
8
Layer01
10
273.961967
20
1.17225
30
0.0
0
VERTEX
100
AcDbVertex
100
AcDb2dVertex
8
Layer01
10
274.494961
20
1.17455
30
0.0
0
VERTEX
100
AcDbVertex
100
AcDb2dVertex
8
Layer01
10
275.027954
20
1.176834
30
0.0
0
VERTEX
100
AcDbVertex
100
AcDb2dVertex
8
Layer01
10
275.560947
20
1.179103
30
0.0
0
VERTEX
100
AcDbVertex
100
AcDb2dVertex
8
Layer01
10
276.09394
20
1.181357
30
0.0
0
VERTEX
100
AcDbVertex
100
AcDb2dVertex
8
Layer01
10
276.626933
20
1.183596
30
0.0
0
VERTEX
100
AcDbVertex
100
AcDb2dVertex
8
Layer01
10
277.159926
20
1.185818
30
0.0
0
VERTEX
100
AcDbVertex
100
AcDb2dVertex
8
Layer01
10
277.692983
20
1.18802
30
0.0
0
VERTEX
100
AcDbVertex
100
AcDb2dVertex
8
Layer01
10
278.225976
20
1.190205
30
0.0
0
VERTEX
100
AcDbVertex
100
AcDb2dVertex
8
Layer01
10
278.758969
20
1.192375
30
0.0
0
VERTEX
100
AcDbVertex
100
AcDb2dVertex
8
Layer01
10
279.291962
20
1.194529
30
0.0
0
VERTEX
100
AcDbVertex
100
AcDb2dVertex
8
Layer01
10
279.824956
20
1.196668
30
0.0
0
VERTEX
100
AcDbVertex
100
AcDb2dVertex
8
Layer01
10
280.357949
20
1.198792
30
0.0
0
VERTEX
100
AcDbVertex
100
AcDb2dVertex
8
Layer01
10
280.890942
20
1.200901
30
0.0
0
VERTEX
100
AcDbVertex
100
AcDb2dVertex
8
Layer01
10
281.423935
20
1.202994
30
0.0
0
VERTEX
100
AcDbVertex
100
AcDb2dVertex
8
Layer01
10
281.956928
20
1.205074
30
0.0
0
VERTEX
100
AcDbVertex
100
AcDb2dVertex
8
Layer01
10
282.489921
20
1.207138
30
0.0
0
VERTEX
100
AcDbVertex
100
AcDb2dVertex
8
Layer01
10
283.022978
20
1.209189
30
0.0
0
VERTEX
100
AcDbVertex
100
AcDb2dVertex
8
Layer01
10
283.555971
20
1.211224
30
0.0
0
VERTEX
100
AcDbVertex
100
AcDb2dVertex
8
Layer01
10
284.088964
20
1.213246
30
0.0
0
VERTEX
100
AcDbVertex
100
AcDb2dVertex
8
Layer01
10
284.621957
20
1.215254
30
0.0
0
VERTEX
100
AcDbVertex
100
AcDb2dVertex
8
Layer01
10
285.15495
20
1.217249
30
0.0
0
VERTEX
100
AcDbVertex
100
AcDb2dVertex
8
Layer01
10
285.687944
20
1.219229
30
0.0
0
VERTEX
100
AcDbVertex
100
AcDb2dVertex
8
Layer01
10
286.220937
20
1.221196
30
0.0
0
VERTEX
100
AcDbVertex
100
AcDb2dVertex
8
Layer01
10
286.75393
20
1.22315
30
0.0
0
VERTEX
100
AcDbVertex
100
AcDb2dVertex
8
Layer01
10
287.286923
20
1.225091
30
0.0
0
VERTEX
100
AcDbVertex
100
AcDb2dVertex
8
Layer01
10
287.819916
20
1.227019
30
0.0
0
VERTEX
100
AcDbVertex
100
AcDb2dVertex
8
Layer01
10
288.353005
20
1.228934
30
0.0
0
VERTEX
100
AcDbVertex
100
AcDb2dVertex
8
Layer01
10
288.885998
20
1.230836
30
0.0
0
VERTEX
100
AcDbVertex
100
AcDb2dVertex
8
Layer01
10
289.418991
20
1.232726
30
0.0
0
VERTEX
100
AcDbVertex
100
AcDb2dVertex
8
Layer01
10
289.951984
20
1.234603
30
0.0
0
VERTEX
100
AcDbVertex
100
AcDb2dVertex
8
Layer01
10
290.484977
20
1.236469
30
0.0
0
VERTEX
100
AcDbVertex
100
AcDb2dVertex
8
Layer01
10
291.01797
20
1.238322
30
0.0
0
VERTEX
100
AcDbVertex
100
AcDb2dVertex
8
Layer01
10
291.550963
20
1.240164
30
0.0
0
VERTEX
100
AcDbVertex
100
AcDb2dVertex
8
Layer01
10
292.083957
20
1.241994
30
0.0
0
VERTEX
100
AcDbVertex
100
AcDb2dVertex
8
Layer01
10
292.61695
20
1.243813
30
0.0
0
VERTEX
100
AcDbVertex
100
AcDb2dVertex
8
Layer01
10
293.149943
20
1.245621
30
0.0
0
VERTEX
100
AcDbVertex
100
AcDb2dVertex
8
Layer01
10
293.682999
20
1.247419
30
0.0
0
VERTEX
100
AcDbVertex
100
AcDb2dVertex
8
Layer01
10
294.215993
20
1.249205
30
0.0
0
VERTEX
100
AcDbVertex
100
AcDb2dVertex
8
Layer01
10
294.748986
20
1.250981
30
0.0
0
VERTEX
100
AcDbVertex
100
AcDb2dVertex
8
Layer01
10
295.281979
20
1.252746
30
0.0
0
VERTEX
100
AcDbVertex
100
AcDb2dVertex
8
Layer01
10
295.814972
20
1.254499
30
0.0
0
VERTEX
100
AcDbVertex
100
AcDb2dVertex
8
Layer01
10
296.347965
20
1.256242
30
0.0
0
VERTEX
100
AcDbVertex
100
AcDb2dVertex
8
Layer01
10
296.880958
20
1.257974
30
0.0
0
VERTEX
100
AcDbVertex
100
AcDb2dVertex
8
Layer01
10
297.413951
20
1.259694
30
0.0
0
VERTEX
100
AcDbVertex
100
AcDb2dVertex
8
Layer01
10
297.946945
20
1.261404
30
0.0
0
VERTEX
100
AcDbVertex
100
AcDb2dVertex
8
Layer01
10
298.479938
20
1.263103
30
0.0
0
VERTEX
100
AcDbVertex
100
AcDb2dVertex
8
Layer01
10
299.012994
20
1.264789
30
0.0
0
VERTEX
100
AcDbVertex
100
AcDb2dVertex
8
Layer01
10
299.545988
20
1.266465
30
0.0
0
VERTEX
100
AcDbVertex
100
AcDb2dVertex
8
Layer01
10
300.078981
20
1.26813
30
0.0
0
VERTEX
100
AcDbVertex
100
AcDb2dVertex
8
Layer01
10
300.611974
20
1.269785
30
0.0
0
VERTEX
100
AcDbVertex
100
AcDb2dVertex
8
Layer01
10
301.144967
20
1.271431
30
0.0
0
VERTEX
100
AcDbVertex
100
AcDb2dVertex
8
Layer01
10
301.67796
20
1.273067
30
0.0
0
VERTEX
100
AcDbVertex
100
AcDb2dVertex
8
Layer01
10
302.210953
20
1.274693
30
0.0
0
VERTEX
100
AcDbVertex
100
AcDb2dVertex
8
Layer01
10
302.743946
20
1.276311
30
0.0
0
VERTEX
100
AcDbVertex
100
AcDb2dVertex
8
Layer01
10
303.27694
20
1.277919
30
0.0
0
VERTEX
100
AcDbVertex
100
AcDb2dVertex
8
Layer01
10
303.809933
20
1.27952
30
0.0
0
VERTEX
100
AcDbVertex
100
AcDb2dVertex
8
Layer01
10
304.342989
20
1.281114
30
0.0
0
VERTEX
100
AcDbVertex
100
AcDb2dVertex
8
Layer01
10
304.875982
20
1.282699
30
0.0
0
VERTEX
100
AcDbVertex
100
AcDb2dVertex
8
Layer01
10
305.408976
20
1.284277
30
0.0
0
VERTEX
100
AcDbVertex
100
AcDb2dVertex
8
Layer01
10
305.941969
20
1.285846
30
0.0
0
VERTEX
100
AcDbVertex
100
AcDb2dVertex
8
Layer01
10
306.474962
20
1.287406
30
0.0
0
VERTEX
100
AcDbVertex
100
AcDb2dVertex
8
Layer01
10
307.007955
20
1.288958
30
0.0
0
VERTEX
100
AcDbVertex
100
AcDb2dVertex
8
Layer01
10
307.540948
20
1.290502
30
0.0
0
VERTEX
100
AcDbVertex
100
AcDb2dVertex
8
Layer01
10
308.073941
20
1.292038
30
0.0
0
VERTEX
100
AcDbVertex
100
AcDb2dVertex
8
Layer01
10
308.606934
20
1.293565
30
0.0
0
VERTEX
100
AcDbVertex
100
AcDb2dVertex
8
Layer01
10
309.139928
20
1.295083
30
0.0
0
VERTEX
100
AcDbVertex
100
AcDb2dVertex
8
Layer01
10
309.672984
20
1.296612
30
0.0
0
VERTEX
100
AcDbVertex
100
AcDb2dVertex
8
Layer01
10
310.205977
20
1.298131
30
0.0
0
VERTEX
100
AcDbVertex
100
AcDb2dVertex
8
Layer01
10
310.738971
20
1.299639
30
0.0
0
VERTEX
100
AcDbVertex
100
AcDb2dVertex
8
Layer01
10
311.271964
20
1.301133
30
0.0
0
VERTEX
100
AcDbVertex
100
AcDb2dVertex
8
Layer01
10
311.804957
20
1.302614
30
0.0
0
VERTEX
100
AcDbVertex
100
AcDb2dVertex
8
Layer01
10
312.33795
20
1.304081
30
0.0
0
VERTEX
100
AcDbVertex
100
AcDb2dVertex
8
Layer01
10
312.870943
20
1.305532
30
0.0
0
VERTEX
100
AcDbVertex
100
AcDb2dVertex
8
Layer01
10
313.403936
20
1.306967
30
0.0
0
VERTEX
100
AcDbVertex
100
AcDb2dVertex
8
Layer01
10
313.936929
20
1.308388
30
0.0
0
VERTEX
100
AcDbVertex
100
AcDb2dVertex
8
Layer01
10
314.469922
20
1.309794
30
0.0
0
VERTEX
100
AcDbVertex
100
AcDb2dVertex
8
Layer01
10
315.002979
20
1.311105
30
0.0
0
VERTEX
100
AcDbVertex
100
AcDb2dVertex
8
Layer01
10
315.535972
20
1.31241
30
0.0
0
VERTEX
100
AcDbVertex
100
AcDb2dVertex
8
Layer01
10
316.068965
20
1.313719
30
0.0
0
VERTEX
100
AcDbVertex
100
AcDb2dVertex
8
Layer01
10
316.601959
20
1.315041
30
0.0
0
VERTEX
100
AcDbVertex
100
AcDb2dVertex
8
Layer01
10
317.134952
20
1.316384
30
0.0
0
VERTEX
100
AcDbVertex
100
AcDb2dVertex
8
Layer01
10
317.667945
20
1.317757
30
0.0
0
VERTEX
100
AcDbVertex
100
AcDb2dVertex
8
Layer01
10
318.200938
20
1.319168
30
0.0
0
VERTEX
100
AcDbVertex
100
AcDb2dVertex
8
Layer01
10
318.733931
20
1.320625
30
0.0
0
VERTEX
100
AcDbVertex
100
AcDb2dVertex
8
Layer01
10
319.266924
20
1.322135
30
0.0
0
VERTEX
100
AcDbVertex
100
AcDb2dVertex
8
Layer01
10
319.799917
20
1.323705
30
0.0
0
VERTEX
100
AcDbVertex
100
AcDb2dVertex
8
Layer01
10
320.333006
20
1.325465
30
0.0
0
VERTEX
100
AcDbVertex
100
AcDb2dVertex
8
Layer01
10
320.865999
20
1.327284
30
0.0
0
VERTEX
100
AcDbVertex
100
AcDb2dVertex
8
Layer01
10
321.398992
20
1.329154
30
0.0
0
VERTEX
100
AcDbVertex
100
AcDb2dVertex
8
Layer01
10
321.931985
20
1.33107
30
0.0
0
VERTEX
100
AcDbVertex
100
AcDb2dVertex
8
Layer01
10
322.464978
20
1.333021
30
0.0
0
VERTEX
100
AcDbVertex
100
AcDb2dVertex
8
Layer01
10
322.997972
20
1.334999
30
0.0
0
VERTEX
100
AcDbVertex
100
AcDb2dVertex
8
Layer01
10
323.530965
20
1.336996
30
0.0
0
VERTEX
100
AcDbVertex
100
AcDb2dVertex
8
Layer01
10
324.063958
20
1.339001
30
0.0
0
VERTEX
100
AcDbVertex
100
AcDb2dVertex
8
Layer01
10
324.596951
20
1.341005
30
0.0
0
VERTEX
100
AcDbVertex
100
AcDb2dVertex
8
Layer01
10
325.129944
20
1.343
30
0.0
0
VERTEX
100
AcDbVertex
100
AcDb2dVertex
8
Layer01
10
325.663001
20
1.344893
30
0.0
0
VERTEX
100
AcDbVertex
100
AcDb2dVertex
8
Layer01
10
326.195994
20
1.346765
30
0.0
0
VERTEX
100
AcDbVertex
100
AcDb2dVertex
8
Layer01
10
326.728987
20
1.348616
30
0.0
0
VERTEX
100
AcDbVertex
100
AcDb2dVertex
8
Layer01
10
327.26198
20
1.350445
30
0.0
0
VERTEX
100
AcDbVertex
100
AcDb2dVertex
8
Layer01
10
327.794973
20
1.352252
30
0.0
0
VERTEX
100
AcDbVertex
100
AcDb2dVertex
8
Layer01
10
328.327966
20
1.354036
30
0.0
0
VERTEX
100
AcDbVertex
100
AcDb2dVertex
8
Layer01
10
328.86096
20
1.355799
30
0.0
0
VERTEX
100
AcDbVertex
100
AcDb2dVertex
8
Layer01
10
329.393953
20
1.35754
30
0.0
0
VERTEX
100
AcDbVertex
100
AcDb2dVertex
8
Layer01
10
329.926946
20
1.359261
30
0.0
0
VERTEX
100
AcDbVertex
100
AcDb2dVertex
8
Layer01
10
330.459939
20
1.360962
30
0.0
0
VERTEX
100
AcDbVertex
100
AcDb2dVertex
8
Layer01
10
330.992996
20
1.362666
30
0.0
0
VERTEX
100
AcDbVertex
100
AcDb2dVertex
8
Layer01
10
331.525989
20
1.364351
30
0.0
0
VERTEX
100
AcDbVertex
100
AcDb2dVertex
8
Layer01
10
332.058982
20
1.366016
30
0.0
0
VERTEX
100
AcDbVertex
100
AcDb2dVertex
8
Layer01
10
332.591975
20
1.36766
30
0.0
0
VERTEX
100
AcDbVertex
100
AcDb2dVertex
8
Layer01
10
333.124968
20
1.369284
30
0.0
0
VERTEX
100
AcDbVertex
100
AcDb2dVertex
8
Layer01
10
333.657961
20
1.370885
30
0.0
0
VERTEX
100
AcDbVertex
100
AcDb2dVertex
8
Layer01
10
334.190955
20
1.372464
30
0.0
0
VERTEX
100
AcDbVertex
100
AcDb2dVertex
8
Layer01
10
334.723948
20
1.374019
30
0.0
0
VERTEX
100
AcDbVertex
100
AcDb2dVertex
8
Layer01
10
335.256941
20
1.375551
30
0.0
0
VERTEX
100
AcDbVertex
100
AcDb2dVertex
8
Layer01
10
335.789934
20
1.377059
30
0.0
0
VERTEX
100
AcDbVertex
100
AcDb2dVertex
8
Layer01
10
336.322991
20
1.37854
30
0.0
0
VERTEX
100
AcDbVertex
100
AcDb2dVertex
8
Layer01
10
336.855984
20
1.379995
30
0.0
0
VERTEX
100
AcDbVertex
100
AcDb2dVertex
8
Layer01
10
337.388977
20
1.381424
30
0.0
0
VERTEX
100
AcDbVertex
100
AcDb2dVertex
8
Layer01
10
337.92197
20
1.382826
30
0.0
0
VERTEX
100
AcDbVertex
100
AcDb2dVertex
8
Layer01
10
338.454963
20
1.384201
30
0.0
0
VERTEX
100
AcDbVertex
100
AcDb2dVertex
8
Layer01
10
338.987956
20
1.385548
30
0.0
0
VERTEX
100
AcDbVertex
100
AcDb2dVertex
8
Layer01
10
339.520949
20
1.386867
30
0.0
0
VERTEX
100
AcDbVertex
100
AcDb2dVertex
8
Layer01
10
340.053943
20
1.388158
30
0.0
0
VERTEX
100
AcDbVertex
100
AcDb2dVertex
8
Layer01
10
340.586936
20
1.389419
30
0.0
0
VERTEX
100
AcDbVertex
100
AcDb2dVertex
8
Layer01
10
341.119929
20
1.39065
30
0.0
0
VERTEX
100
AcDbVertex
100
AcDb2dVertex
8
Layer01
10
341.652986
20
1.391853
30
0.0
0
VERTEX
100
AcDbVertex
100
AcDb2dVertex
8
Layer01
10
342.185979
20
1.393024
30
0.0
0
VERTEX
100
AcDbVertex
100
AcDb2dVertex
8
Layer01
10
342.718972
20
1.394164
30
0.0
0
VERTEX
100
AcDbVertex
100
AcDb2dVertex
8
Layer01
10
343.251965
20
1.395272
30
0.0
0
VERTEX
100
AcDbVertex
100
AcDb2dVertex
8
Layer01
10
343.784958
20
1.396347
30
0.0
0
VERTEX
100
AcDbVertex
100
AcDb2dVertex
8
Layer01
10
344.317951
20
1.397388
30
0.0
0
VERTEX
100
AcDbVertex
100
AcDb2dVertex
8
Layer01
10
344.850944
20
1.398395
30
0.0
0
VERTEX
100
AcDbVertex
100
AcDb2dVertex
8
Layer01
10
345.383937
20
1.399367
30
0.0
0
VERTEX
100
AcDbVertex
100
AcDb2dVertex
8
Layer01
10
345.916931
20
1.400303
30
0.0
0
VERTEX
100
AcDbVertex
100
AcDb2dVertex
8
Layer01
10
346.449924
20
1.401204
30
0.0
0
VERTEX
100
AcDbVertex
100
AcDb2dVertex
8
Layer01
10
346.98298
20
1.402066
30
0.0
0
VERTEX
100
AcDbVertex
100
AcDb2dVertex
8
Layer01
10
347.515974
20
1.40289
30
0.0
0
VERTEX
100
AcDbVertex
100
AcDb2dVertex
8
Layer01
10
348.048967
20
1.403677
30
0.0
0
VERTEX
100
AcDbVertex
100
AcDb2dVertex
8
Layer01
10
348.58196
20
1.404425
30
0.0
0
VERTEX
100
AcDbVertex
100
AcDb2dVertex
8
Layer01
10
349.114953
20
1.405135
30
0.0
0
VERTEX
100
AcDbVertex
100
AcDb2dVertex
8
Layer01
10
349.647946
20
1.405804
30
0.0
0
VERTEX
100
AcDbVertex
100
AcDb2dVertex
8
Layer01
10
350.180939
20
1.406434
30
0.0
0
VERTEX
100
AcDbVertex
100
AcDb2dVertex
8
Layer01
10
350.713932
20
1.407024
30
0.0
0
VERTEX
100
AcDbVertex
100
AcDb2dVertex
8
Layer01
10
351.246926
20
1.407572
30
0.0
0
VERTEX
100
AcDbVertex
100
AcDb2dVertex
8
Layer01
10
351.779919
20
1.408079
30
0.0
0
VERTEX
100
AcDbVertex
100
AcDb2dVertex
8
Layer01
10
352.313007
20
1.408546
30
0.0
0
VERTEX
100
AcDbVertex
100
AcDb2dVertex
8
Layer01
10
352.846
20
1.408971
30
0.0
0
VERTEX
100
AcDbVertex
100
AcDb2dVertex
8
Layer01
10
353.378993
20
1.409351
30
0.0
0
VERTEX
100
AcDbVertex
100
AcDb2dVertex
8
Layer01
10
353.911987
20
1.409688
30
0.0
0
VERTEX
100
AcDbVertex
100
AcDb2dVertex
8
Layer01
10
354.44498
20
1.40998
30
0.0
0
VERTEX
100
AcDbVertex
100
AcDb2dVertex
8
Layer01
10
354.977973
20
1.410227
30
0.0
0
VERTEX
100
AcDbVertex
100
AcDb2dVertex
8
Layer01
10
355.510966
20
1.410427
30
0.0
0
VERTEX
100
AcDbVertex
100
AcDb2dVertex
8
Layer01
10
356.043959
20
1.41058
30
0.0
0
VERTEX
100
AcDbVertex
100
AcDb2dVertex
8
Layer01
10
356.576952
20
1.410686
30
0.0
0
VERTEX
100
AcDbVertex
100
AcDb2dVertex
8
Layer01
10
357.109945
20
1.410744
30
0.0
0
VERTEX
100
AcDbVertex
100
AcDb2dVertex
8
Layer01
10
357.643002
20
1.410751
30
0.0
0
VERTEX
100
AcDbVertex
100
AcDb2dVertex
8
Layer01
10
358.175995
20
1.410708
30
0.0
0
VERTEX
100
AcDbVertex
100
AcDb2dVertex
8
Layer01
10
358.708988
20
1.410616
30
0.0
0
VERTEX
100
AcDbVertex
100
AcDb2dVertex
8
Layer01
10
359.241981
20
1.410475
30
0.0
0
VERTEX
100
AcDbVertex
100
AcDb2dVertex
8
Layer01
10
359.774975
20
1.410283
30
0.0
0
VERTEX
100
AcDbVertex
100
AcDb2dVertex
8
Layer01
10
360.307968
20
1.41004
30
0.0
0
VERTEX
100
AcDbVertex
100
AcDb2dVertex
8
Layer01
10
360.840961
20
1.409747
30
0.0
0
VERTEX
100
AcDbVertex
100
AcDb2dVertex
8
Layer01
10
361.373954
20
1.409403
30
0.0
0
VERTEX
100
AcDbVertex
100
AcDb2dVertex
8
Layer01
10
361.906947
20
1.409007
30
0.0
0
VERTEX
100
AcDbVertex
100
AcDb2dVertex
8
Layer01
10
362.43994
20
1.408559
30
0.0
0
VERTEX
100
AcDbVertex
100
AcDb2dVertex
8
Layer01
10
362.972997
20
1.408048
30
0.0
0
VERTEX
100
AcDbVertex
100
AcDb2dVertex
8
Layer01
10
363.50599
20
1.407486
30
0.0
0
VERTEX
100
AcDbVertex
100
AcDb2dVertex
8
Layer01
10
364.038983
20
1.406872
30
0.0
0
VERTEX
100
AcDbVertex
100
AcDb2dVertex
8
Layer01
10
364.571976
20
1.406208
30
0.0
0
VERTEX
100
AcDbVertex
100
AcDb2dVertex
8
Layer01
10
365.10497
20
1.405493
30
0.0
0
VERTEX
100
AcDbVertex
100
AcDb2dVertex
8
Layer01
10
365.637963
20
1.404727
30
0.0
0
VERTEX
100
AcDbVertex
100
AcDb2dVertex
8
Layer01
10
366.170956
20
1.403911
30
0.0
0
VERTEX
100
AcDbVertex
100
AcDb2dVertex
8
Layer01
10
366.703949
20
1.403043
30
0.0
0
VERTEX
100
AcDbVertex
100
AcDb2dVertex
8
Layer01
10
367.236942
20
1.402123
30
0.0
0
VERTEX
100
AcDbVertex
100
AcDb2dVertex
8
Layer01
10
367.769935
20
1.401151
30
0.0
0
VERTEX
100
AcDbVertex
100
AcDb2dVertex
8
Layer01
10
368.302992
20
1.400177
30
0.0
0
VERTEX
100
AcDbVertex
100
AcDb2dVertex
8
Layer01
10
368.835985
20
1.399144
30
0.0
0
VERTEX
100
AcDbVertex
100
AcDb2dVertex
8
Layer01
10
369.368978
20
1.398045
30
0.0
0
VERTEX
100
AcDbVertex
100
AcDb2dVertex
8
Layer01
10
369.901971
20
1.396873
30
0.0
0
VERTEX
100
AcDbVertex
100
AcDb2dVertex
8
Layer01
10
370.434964
20
1.395622
30
0.0
0
VERTEX
100
AcDbVertex
100
AcDb2dVertex
8
Layer01
10
370.967958
20
1.394287
30
0.0
0
VERTEX
100
AcDbVertex
100
AcDb2dVertex
8
Layer01
10
371.500951
20
1.392861
30
0.0
0
VERTEX
100
AcDbVertex
100
AcDb2dVertex
8
Layer01
10
372.033944
20
1.391339
30
0.0
0
VERTEX
100
AcDbVertex
100
AcDb2dVertex
8
Layer01
10
372.566937
20
1.389715
30
0.0
0
VERTEX
100
AcDbVertex
100
AcDb2dVertex
8
Layer01
10
373.09993
20
1.387986
30
0.0
0
VERTEX
100
AcDbVertex
100
AcDb2dVertex
8
Layer01
10
373.632987
20
1.386063
30
0.0
0
VERTEX
100
AcDbVertex
100
AcDb2dVertex
8
Layer01
10
374.16598
20
1.384035
30
0.0
0
VERTEX
100
AcDbVertex
100
AcDb2dVertex
8
Layer01
10
374.698973
20
1.381904
30
0.0
0
VERTEX
100
AcDbVertex
100
AcDb2dVertex
8
Layer01
10
375.231966
20
1.379677
30
0.0
0
VERTEX
100
AcDbVertex
100
AcDb2dVertex
8
Layer01
10
375.764959
20
1.377358
30
0.0
0
VERTEX
100
AcDbVertex
100
AcDb2dVertex
8
Layer01
10
376.297952
20
1.374953
30
0.0
0
VERTEX
100
AcDbVertex
100
AcDb2dVertex
8
Layer01
10
376.830946
20
1.372467
30
0.0
0
VERTEX
100
AcDbVertex
100
AcDb2dVertex
8
Layer01
10
377.363939
20
1.369907
30
0.0
0
VERTEX
100
AcDbVertex
100
AcDb2dVertex
8
Layer01
10
377.896932
20
1.367278
30
0.0
0
VERTEX
100
AcDbVertex
100
AcDb2dVertex
8
Layer01
10
378.429925
20
1.364587
30
0.0
0
VERTEX
100
AcDbVertex
100
AcDb2dVertex
8
Layer01
10
378.962982
20
1.361894
30
0.0
0
VERTEX
100
AcDbVertex
100
AcDb2dVertex
8
Layer01
10
379.495975
20
1.359145
30
0.0
0
VERTEX
100
AcDbVertex
100
AcDb2dVertex
8
Layer01
10
380.028968
20
1.35634
30
0.0
0
VERTEX
100
AcDbVertex
100
AcDb2dVertex
8
Layer01
10
380.561961
20
1.353479
30
0.0
0
VERTEX
100
AcDbVertex
100
AcDb2dVertex
8
Layer01
10
381.094954
20
1.350562
30
0.0
0
VERTEX
100
AcDbVertex
100
AcDb2dVertex
8
Layer01
10
381.627947
20
1.347588
30
0.0
0
VERTEX
100
AcDbVertex
100
AcDb2dVertex
8
Layer01
10
382.160941
20
1.344557
30
0.0
0
VERTEX
100
AcDbVertex
100
AcDb2dVertex
8
Layer01
10
382.693934
20
1.341468
30
0.0
0
VERTEX
100
AcDbVertex
100
AcDb2dVertex
8
Layer01
10
383.226927
20
1.33832
30
0.0
0
VERTEX
100
AcDbVertex
100
AcDb2dVertex
8
Layer01
10
383.75992
20
1.335112
30
0.0
0
VERTEX
100
AcDbVertex
100
AcDb2dVertex
8
Layer01
10
384.293008
20
1.331828
30
0.0
0
VERTEX
100
AcDbVertex
100
AcDb2dVertex
8
Layer01
10
384.826002
20
1.328484
30
0.0
0
VERTEX
100
AcDbVertex
100
AcDb2dVertex
8
Layer01
10
385.358995
20
1.32508
30
0.0
0
VERTEX
100
AcDbVertex
100
AcDb2dVertex
8
Layer01
10
385.891988
20
1.321615
30
0.0
0
VERTEX
100
AcDbVertex
100
AcDb2dVertex
8
Layer01
10
386.424981
20
1.318089
30
0.0
0
VERTEX
100
AcDbVertex
100
AcDb2dVertex
8
Layer01
10
386.957974
20
1.314503
30
0.0
0
VERTEX
100
AcDbVertex
100
AcDb2dVertex
8
Layer01
10
387.490967
20
1.310857
30
0.0
0
VERTEX
100
AcDbVertex
100
AcDb2dVertex
8
Layer01
10
388.02396
20
1.307151
30
0.0
0
VERTEX
100
AcDbVertex
100
AcDb2dVertex
8
Layer01
10
388.556953
20
1.303386
30
0.0
0
VERTEX
100
AcDbVertex
100
AcDb2dVertex
8
Layer01
10
389.089947
20
1.299561
30
0.0
0
VERTEX
100
AcDbVertex
100
AcDb2dVertex
8
Layer01
10
389.623003
20
1.295676
30
0.0
0
VERTEX
100
AcDbVertex
100
AcDb2dVertex
8
Layer01
10
390.155996
20
1.291733
30
0.0
0
VERTEX
100
AcDbVertex
100
AcDb2dVertex
8
Layer01
10
390.68899
20
1.287731
30
0.0
0
VERTEX
100
AcDbVertex
100
AcDb2dVertex
8
Layer01
10
391.221983
20
1.283671
30
0.0
0
VERTEX
100
AcDbVertex
100
AcDb2dVertex
8
Layer01
10
391.754976
20
1.279552
30
0.0
0
VERTEX
100
AcDbVertex
100
AcDb2dVertex
8
Layer01
10
392.287969
20
1.275375
30
0.0
0
VERTEX
100
AcDbVertex
100
AcDb2dVertex
8
Layer01
10
392.820962
20
1.271141
30
0.0
0
VERTEX
100
AcDbVertex
100
AcDb2dVertex
8
Layer01
10
393.353955
20
1.266849
30
0.0
0
VERTEX
100
AcDbVertex
100
AcDb2dVertex
8
Layer01
10
393.886948
20
1.2625
30
0.0
0
VERTEX
100
AcDbVertex
100
AcDb2dVertex
8
Layer01
10
394.419942
20
1.258094
30
0.0
0
VERTEX
100
AcDbVertex
100
AcDb2dVertex
8
Layer01
10
394.952998
20
1.253631
30
0.0
0
VERTEX
100
AcDbVertex
100
AcDb2dVertex
8
Layer01
10
395.485991
20
1.249112
30
0.0
0
VERTEX
100
AcDbVertex
100
AcDb2dVertex
8
Layer01
10
396.018984
20
1.244538
30
0.0
0
VERTEX
100
AcDbVertex
100
AcDb2dVertex
8
Layer01
10
396.551978
20
1.239908
30
0.0
0
VERTEX
100
AcDbVertex
100
AcDb2dVertex
8
Layer01
10
397.084971
20
1.235222
30
0.0
0
VERTEX
100
AcDbVertex
100
AcDb2dVertex
8
Layer01
10
397.617964
20
1.230482
30
0.0
0
VERTEX
100
AcDbVertex
100
AcDb2dVertex
8
Layer01
10
398.150957
20
1.225687
30
0.0
0
VERTEX
100
AcDbVertex
100
AcDb2dVertex
8
Layer01
10
398.68395
20
1.220837
30
0.0
0
VERTEX
100
AcDbVertex
100
AcDb2dVertex
8
Layer01
10
399.216943
20
1.215934
30
0.0
0
VERTEX
100
AcDbVertex
100
AcDb2dVertex
8
Layer01
10
399.749936
20
1.210977
30
0.0
0
VERTEX
100
AcDbVertex
100
AcDb2dVertex
8
Layer01
10
400.282993
20
1.205966
30
0.0
0
VERTEX
100
AcDbVertex
100
AcDb2dVertex
8
Layer01
10
400.815986
20
1.200903
30
0.0
0
VERTEX
100
AcDbVertex
100
AcDb2dVertex
8
Layer01
10
401.348979
20
1.195787
30
0.0
0
VERTEX
100
AcDbVertex
100
AcDb2dVertex
8
Layer01
10
401.881973
20
1.190618
30
0.0
0
VERTEX
100
AcDbVertex
100
AcDb2dVertex
8
Layer01
10
402.414966
20
1.185398
30
0.0
0
VERTEX
100
AcDbVertex
100
AcDb2dVertex
8
Layer01
10
402.947959
20
1.180126
30
0.0
0
VERTEX
100
AcDbVertex
100
AcDb2dVertex
8
Layer01
10
403.480952
20
1.174803
30
0.0
0
VERTEX
100
AcDbVertex
100
AcDb2dVertex
8
Layer01
10
404.013945
20
1.169429
30
0.0
0
VERTEX
100
AcDbVertex
100
AcDb2dVertex
8
Layer01
10
404.546938
20
1.164004
30
0.0
0
VERTEX
100
AcDbVertex
100
AcDb2dVertex
8
Layer01
10
405.079931
20
1.15853
30
0.0
0
VERTEX
100
AcDbVertex
100
AcDb2dVertex
8
Layer01
10
405.612988
20
1.153003
30
0.0
0
VERTEX
100
AcDbVertex
100
AcDb2dVertex
8
Layer01
10
406.145981
20
1.147429
30
0.0
0
VERTEX
100
AcDbVertex
100
AcDb2dVertex
8
Layer01
10
406.678974
20
1.141805
30
0.0
0
VERTEX
100
AcDbVertex
100
AcDb2dVertex
8
Layer01
10
407.211967
20
1.136134
30
0.0
0
VERTEX
100
AcDbVertex
100
AcDb2dVertex
8
Layer01
10
407.744961
20
1.130415
30
0.0
0
VERTEX
100
AcDbVertex
100
AcDb2dVertex
8
Layer01
10
408.277954
20
1.124649
30
0.0
0
VERTEX
100
AcDbVertex
100
AcDb2dVertex
8
Layer01
10
408.810947
20
1.118836
30
0.0
0
VERTEX
100
AcDbVertex
100
AcDb2dVertex
8
Layer01
10
409.34394
20
1.112978
30
0.0
0
VERTEX
100
AcDbVertex
100
AcDb2dVertex
8
Layer01
10
409.876933
20
1.107074
30
0.0
0
VERTEX
100
AcDbVertex
100
AcDb2dVertex
8
Layer01
10
410.409926
20
1.101126
30
0.0
0
VERTEX
100
AcDbVertex
100
AcDb2dVertex
8
Layer01
10
410.942983
20
1.095134
30
0.0
0
VERTEX
100
AcDbVertex
100
AcDb2dVertex
8
Layer01
10
411.475976
20
1.089099
30
0.0
0
VERTEX
100
AcDbVertex
100
AcDb2dVertex
8
Layer01
10
412.008969
20
1.083021
30
0.0
0
VERTEX
100
AcDbVertex
100
AcDb2dVertex
8
Layer01
10
412.541962
20
1.0769
30
0.0
0
VERTEX
100
AcDbVertex
100
AcDb2dVertex
8
Layer01
10
413.074956
20
1.070736
30
0.0
0
VERTEX
100
AcDbVertex
100
AcDb2dVertex
8
Layer01
10
413.607949
20
1.064531
30
0.0
0
VERTEX
100
AcDbVertex
100
AcDb2dVertex
8
Layer01
10
414.140942
20
1.058284
30
0.0
0
VERTEX
100
AcDbVertex
100
AcDb2dVertex
8
Layer01
10
414.673935
20
1.051995
30
0.0
0
VERTEX
100
AcDbVertex
100
AcDb2dVertex
8
Layer01
10
415.206928
20
1.045667
30
0.0
0
VERTEX
100
AcDbVertex
100
AcDb2dVertex
8
Layer01
10
415.739921
20
1.039298
30
0.0
0
VERTEX
100
AcDbVertex
100
AcDb2dVertex
8
Layer01
10
416.272978
20
1.032906
30
0.0
0
VERTEX
100
AcDbVertex
100
AcDb2dVertex
8
Layer01
10
416.805971
20
1.026475
30
0.0
0
VERTEX
100
AcDbVertex
100
AcDb2dVertex
8
Layer01
10
417.338964
20
1.020002
30
0.0
0
VERTEX
100
AcDbVertex
100
AcDb2dVertex
8
Layer01
10
417.871957
20
1.013488
30
0.0
0
VERTEX
100
AcDbVertex
100
AcDb2dVertex
8
Layer01
10
418.40495
20
1.006932
30
0.0
0
VERTEX
100
AcDbVertex
100
AcDb2dVertex
8
Layer01
10
418.937944
20
1.000334
30
0.0
0
VERTEX
100
AcDbVertex
100
AcDb2dVertex
8
Layer01
10
419.470937
20
0.993693
30
0.0
0
VERTEX
100
AcDbVertex
100
AcDb2dVertex
8
Layer01
10
420.00393
20
0.987011
30
0.0
0
VERTEX
100
AcDbVertex
100
AcDb2dVertex
8
Layer01
10
420.536923
20
0.980288
30
0.0
0
VERTEX
100
AcDbVertex
100
AcDb2dVertex
8
Layer01
10
421.069916
20
0.973526
30
0.0
0
VERTEX
100
AcDbVertex
100
AcDb2dVertex
8
Layer01
10
421.603005
20
0.966654
30
0.0
0
VERTEX
100
AcDbVertex
100
AcDb2dVertex
8
Layer01
10
422.135998
20
0.959755
30
0.0
0
VERTEX
100
AcDbVertex
100
AcDb2dVertex
8
Layer01
10
422.668991
20
0.952834
30
0.0
0
VERTEX
100
AcDbVertex
100
AcDb2dVertex
8
Layer01
10
423.201984
20
0.945901
30
0.0
0
VERTEX
100
AcDbVertex
100
AcDb2dVertex
8
Layer01
10
423.734977
20
0.938963
30
0.0
0
VERTEX
100
AcDbVertex
100
AcDb2dVertex
8
Layer01
10
424.26797
20
0.93203
30
0.0
0
VERTEX
100
AcDbVertex
100
AcDb2dVertex
8
Layer01
10
424.800963
20
0.925109
30
0.0
0
VERTEX
100
AcDbVertex
100
AcDb2dVertex
8
Layer01
10
425.333957
20
0.918209
30
0.0
0
VERTEX
100
AcDbVertex
100
AcDb2dVertex
8
Layer01
10
425.86695
20
0.911338
30
0.0
0
VERTEX
100
AcDbVertex
100
AcDb2dVertex
8
Layer01
10
426.399943
20
0.904502
30
0.0
0
VERTEX
100
AcDbVertex
100
AcDb2dVertex
8
Layer01
10
426.932999
20
0.897801
30
0.0
0
VERTEX
100
AcDbVertex
100
AcDb2dVertex
8
Layer01
10
427.465993
20
0.89114
30
0.0
0
VERTEX
100
AcDbVertex
100
AcDb2dVertex
8
Layer01
10
427.998986
20
0.884515
30
0.0
0
VERTEX
100
AcDbVertex
100
AcDb2dVertex
8
Layer01
10
428.531979
20
0.877922
30
0.0
0
VERTEX
100
AcDbVertex
100
AcDb2dVertex
8
Layer01
10
429.064972
20
0.871358
30
0.0
0
VERTEX
100
AcDbVertex
100
AcDb2dVertex
8
Layer01
10
429.597965
20
0.864817
30
0.0
0
VERTEX
100
AcDbVertex
100
AcDb2dVertex
8
Layer01
10
430.130958
20
0.858294
30
0.0
0
VERTEX
100
AcDbVertex
100
AcDb2dVertex
8
Layer01
10
430.663951
20
0.851784
30
0.0
0
VERTEX
100
AcDbVertex
100
AcDb2dVertex
8
Layer01
10
431.196945
20
0.845282
30
0.0
0
VERTEX
100
AcDbVertex
100
AcDb2dVertex
8
Layer01
10
431.729938
20
0.838783
30
0.0
0
VERTEX
100
AcDbVertex
100
AcDb2dVertex
8
Layer01
10
432.262994
20
0.832227
30
0.0
0
VERTEX
100
AcDbVertex
100
AcDb2dVertex
8
Layer01
10
432.795988
20
0.825668
30
0.0
0
VERTEX
100
AcDbVertex
100
AcDb2dVertex
8
Layer01
10
433.328981
20
0.819105
30
0.0
0
VERTEX
100
AcDbVertex
100
AcDb2dVertex
8
Layer01
10
433.861974
20
0.812538
30
0.0
0
VERTEX
100
AcDbVertex
100
AcDb2dVertex
8
Layer01
10
434.394967
20
0.805967
30
0.0
0
VERTEX
100
AcDbVertex
100
AcDb2dVertex
8
Layer01
10
434.92796
20
0.799392
30
0.0
0
VERTEX
100
AcDbVertex
100
AcDb2dVertex
8
Layer01
10
435.460953
20
0.792814
30
0.0
0
VERTEX
100
AcDbVertex
100
AcDb2dVertex
8
Layer01
10
435.993946
20
0.786233
30
0.0
0
VERTEX
100
AcDbVertex
100
AcDb2dVertex
8
Layer01
10
436.52694
20
0.779649
30
0.0
0
VERTEX
100
AcDbVertex
100
AcDb2dVertex
8
Layer01
10
437.059933
20
0.773064
30
0.0
0
VERTEX
100
AcDbVertex
100
AcDb2dVertex
8
Layer01
10
437.592989
20
0.766486
30
0.0
0
VERTEX
100
AcDbVertex
100
AcDb2dVertex
8
Layer01
10
438.125982
20
0.759908
30
0.0
0
VERTEX
100
AcDbVertex
100
AcDb2dVertex
8
Layer01
10
438.658976
20
0.75333
30
0.0
0
VERTEX
100
AcDbVertex
100
AcDb2dVertex
8
Layer01
10
439.191969
20
0.746751
30
0.0
0
VERTEX
100
AcDbVertex
100
AcDb2dVertex
8
Layer01
10
439.724962
20
0.740173
30
0.0
0
VERTEX
100
AcDbVertex
100
AcDb2dVertex
8
Layer01
10
440.257955
20
0.733595
30
0.0
0
VERTEX
100
AcDbVertex
100
AcDb2dVertex
8
Layer01
10
440.790948
20
0.727018
30
0.0
0
VERTEX
100
AcDbVertex
100
AcDb2dVertex
8
Layer01
10
441.323941
20
0.720442
30
0.0
0
VERTEX
100
AcDbVertex
100
AcDb2dVertex
8
Layer01
10
441.856934
20
0.713866
30
0.0
0
VERTEX
100
AcDbVertex
100
AcDb2dVertex
8
Layer01
10
442.389928
20
0.707292
30
0.0
0
VERTEX
100
AcDbVertex
100
AcDb2dVertex
8
Layer01
10
442.922984
20
0.700722
30
0.0
0
VERTEX
100
AcDbVertex
100
AcDb2dVertex
8
Layer01
10
443.455977
20
0.694154
30
0.0
0
VERTEX
100
AcDbVertex
100
AcDb2dVertex
8
Layer01
10
443.988971
20
0.687586
30
0.0
0
VERTEX
100
AcDbVertex
100
AcDb2dVertex
8
Layer01
10
444.521964
20
0.68102
30
0.0
0
VERTEX
100
AcDbVertex
100
AcDb2dVertex
8
Layer01
10
445.054957
20
0.674454
30
0.0
0
VERTEX
100
AcDbVertex
100
AcDb2dVertex
8
Layer01
10
445.58795
20
0.667889
30
0.0
0
VERTEX
100
AcDbVertex
100
AcDb2dVertex
8
Layer01
10
446.120943
20
0.661323
30
0.0
0
VERTEX
100
AcDbVertex
100
AcDb2dVertex
8
Layer01
10
446.653936
20
0.654758
30
0.0
0
VERTEX
100
AcDbVertex
100
AcDb2dVertex
8
Layer01
10
447.186929
20
0.648193
30
0.0
0
VERTEX
100
AcDbVertex
100
AcDb2dVertex
8
Layer01
10
447.719922
20
0.641626
30
0.0
0
VERTEX
100
AcDbVertex
100
AcDb2dVertex
8
Layer01
10
448.252979
20
0.635056
30
0.0
0
VERTEX
100
AcDbVertex
100
AcDb2dVertex
8
Layer01
10
448.785972
20
0.628486
30
0.0
0
VERTEX
100
AcDbVertex
100
AcDb2dVertex
8
Layer01
10
449.318965
20
0.621915
30
0.0
0
VERTEX
100
AcDbVertex
100
AcDb2dVertex
8
Layer01
10
449.851959
20
0.615344
30
0.0
0
VERTEX
100
AcDbVertex
100
AcDb2dVertex
8
Layer01
10
450.384952
20
0.608772
30
0.0
0
VERTEX
100
AcDbVertex
100
AcDb2dVertex
8
Layer01
10
450.917945
20
0.602199
30
0.0
0
VERTEX
100
AcDbVertex
100
AcDb2dVertex
8
Layer01
10
451.450938
20
0.595627
30
0.0
0
VERTEX
100
AcDbVertex
100
AcDb2dVertex
8
Layer01
10
451.983931
20
0.589054
30
0.0
0
VERTEX
100
AcDbVertex
100
AcDb2dVertex
8
Layer01
10
452.516924
20
0.582481
30
0.0
0
VERTEX
100
AcDbVertex
100
AcDb2dVertex
8
Layer01
10
453.049917
20
0.575908
30
0.0
0
VERTEX
100
AcDbVertex
100
AcDb2dVertex
8
Layer01
10
453.583006
20
0.569334
30
0.0
0
VERTEX
100
AcDbVertex
100
AcDb2dVertex
8
Layer01
10
454.115999
20
0.562763
30
0.0
0
VERTEX
100
AcDbVertex
100
AcDb2dVertex
8
Layer01
10
454.648992
20
0.556191
30
0.0
0
VERTEX
100
AcDbVertex
100
AcDb2dVertex
8
Layer01
10
455.181985
20
0.549619
30
0.0
0
VERTEX
100
AcDbVertex
100
AcDb2dVertex
8
Layer01
10
455.714978
20
0.543047
30
0.0
0
VERTEX
100
AcDbVertex
100
AcDb2dVertex
8
Layer01
10
456.247972
20
0.536476
30
0.0
0
VERTEX
100
AcDbVertex
100
AcDb2dVertex
8
Layer01
10
456.780965
20
0.529904
30
0.0
0
VERTEX
100
AcDbVertex
100
AcDb2dVertex
8
Layer01
10
457.313958
20
0.523332
30
0.0
0
VERTEX
100
AcDbVertex
100
AcDb2dVertex
8
Layer01
10
457.846951
20
0.51676
30
0.0
0
VERTEX
100
AcDbVertex
100
AcDb2dVertex
8
Layer01
10
458.379944
20
0.510188
30
0.0
0
VERTEX
100
AcDbVertex
100
AcDb2dVertex
8
Layer01
10
458.913001
20
0.503615
30
0.0
0
VERTEX
100
AcDbVertex
100
AcDb2dVertex
8
Layer01
10
459.445994
20
0.497042
30
0.0
0
VERTEX
100
AcDbVertex
100
AcDb2dVertex
8
Layer01
10
459.978987
20
0.490469
30
0.0
0
VERTEX
100
AcDbVertex
100
AcDb2dVertex
8
Layer01
10
460.51198
20
0.483896
30
0.0
0
VERTEX
100
AcDbVertex
100
AcDb2dVertex
8
Layer01
10
461.044973
20
0.477324
30
0.0
0
VERTEX
100
AcDbVertex
100
AcDb2dVertex
8
Layer01
10
461.577966
20
0.470752
30
0.0
0
VERTEX
100
AcDbVertex
100
AcDb2dVertex
8
Layer01
10
462.11096
20
0.464181
30
0.0
0
VERTEX
100
AcDbVertex
100
AcDb2dVertex
8
Layer01
10
462.643953
20
0.45761
30
0.0
0
VERTEX
100
AcDbVertex
100
AcDb2dVertex
8
Layer01
10
463.176946
20
0.451039
30
0.0
0
VERTEX
100
AcDbVertex
100
AcDb2dVertex
8
Layer01
10
463.709939
20
0.444469
30
0.0
0
VERTEX
100
AcDbVertex
100
AcDb2dVertex
8
Layer01
10
464.242996
20
0.437902
30
0.0
0
VERTEX
100
AcDbVertex
100
AcDb2dVertex
8
Layer01
10
464.775989
20
0.431335
30
0.0
0
VERTEX
100
AcDbVertex
100
AcDb2dVertex
8
Layer01
10
465.308982
20
0.424769
30
0.0
0
VERTEX
100
AcDbVertex
100
AcDb2dVertex
8
Layer01
10
465.841975
20
0.418203
30
0.0
0
VERTEX
100
AcDbVertex
100
AcDb2dVertex
8
Layer01
10
466.374968
20
0.411637
30
0.0
0
VERTEX
100
AcDbVertex
100
AcDb2dVertex
8
Layer01
10
466.907961
20
0.405071
30
0.0
0
VERTEX
100
AcDbVertex
100
AcDb2dVertex
8
Layer01
10
467.440955
20
0.398505
30
0.0
0
VERTEX
100
AcDbVertex
100
AcDb2dVertex
8
Layer01
10
467.973948
20
0.391938
30
0.0
0
VERTEX
100
AcDbVertex
100
AcDb2dVertex
8
Layer01
10
468.506941
20
0.385371
30
0.0
0
VERTEX
100
AcDbVertex
100
AcDb2dVertex
8
Layer01
10
469.039934
20
0.378804
30
0.0
0
VERTEX
100
AcDbVertex
100
AcDb2dVertex
8
Layer01
10
469.572991
20
0.37227
30
0.0
0
VERTEX
100
AcDbVertex
100
AcDb2dVertex
8
Layer01
10
470.105984
20
0.365734
30
0.0
0
VERTEX
100
AcDbVertex
100
AcDb2dVertex
8
Layer01
10
470.638977
20
0.359192
30
0.0
0
VERTEX
100
AcDbVertex
100
AcDb2dVertex
8
Layer01
10
471.17197
20
0.352641
30
0.0
0
VERTEX
100
AcDbVertex
100
AcDb2dVertex
8
Layer01
10
471.704963
20
0.34608
30
0.0
0
VERTEX
100
AcDbVertex
100
AcDb2dVertex
8
Layer01
10
472.237956
20
0.339507
30
0.0
0
VERTEX
100
AcDbVertex
100
AcDb2dVertex
8
Layer01
10
472.770949
20
0.332921
30
0.0
0
VERTEX
100
AcDbVertex
100
AcDb2dVertex
8
Layer01
10
473.303943
20
0.326321
30
0.0
0
VERTEX
100
AcDbVertex
100
AcDb2dVertex
8
Layer01
10
473.836936
20
0.319709
30
0.0
0
VERTEX
100
AcDbVertex
100
AcDb2dVertex
8
Layer01
10
474.369929
20
0.313085
30
0.0
0
VERTEX
100
AcDbVertex
100
AcDb2dVertex
8
Layer01
10
474.902986
20
0.306373
30
0.0
0
VERTEX
100
AcDbVertex
100
AcDb2dVertex
8
Layer01
10
475.435979
20
0.299662
30
0.0
0
VERTEX
100
AcDbVertex
100
AcDb2dVertex
8
Layer01
10
475.968972
20
0.292963
30
0.0
0
VERTEX
100
AcDbVertex
100
AcDb2dVertex
8
Layer01
10
476.501965
20
0.286286
30
0.0
0
VERTEX
100
AcDbVertex
100
AcDb2dVertex
8
Layer01
10
477.034958
20
0.279644
30
0.0
0
VERTEX
100
AcDbVertex
100
AcDb2dVertex
8
Layer01
10
477.567951
20
0.273049
30
0.0
0
VERTEX
100
AcDbVertex
100
AcDb2dVertex
8
Layer01
10
478.100944
20
0.266516
30
0.0
0
VERTEX
100
AcDbVertex
100
AcDb2dVertex
8
Layer01
10
478.633937
20
0.260057
30
0.0
0
VERTEX
100
AcDbVertex
100
AcDb2dVertex
8
Layer01
10
479.166931
20
0.253687
30
0.0
0
VERTEX
100
AcDbVertex
100
AcDb2dVertex
8
Layer01
10
479.699924
20
0.247419
30
0.0
0
VERTEX
100
AcDbVertex
100
AcDb2dVertex
8
Layer01
10
480.23298
20
0.241263
30
0.0
0
VERTEX
100
AcDbVertex
100
AcDb2dVertex
8
Layer01
10
480.765974
20
0.235239
30
0.0
0
VERTEX
100
AcDbVertex
100
AcDb2dVertex
8
Layer01
10
481.298967
20
0.22936
30
0.0
0
VERTEX
100
AcDbVertex
100
AcDb2dVertex
8
Layer01
10
481.83196
20
0.223639
30
0.0
0
VERTEX
100
AcDbVertex
100
AcDb2dVertex
8
Layer01
10
482.364953
20
0.218091
30
0.0
0
VERTEX
100
AcDbVertex
100
AcDb2dVertex
8
Layer01
10
482.897946
20
0.212726
30
0.0
0
VERTEX
100
AcDbVertex
100
AcDb2dVertex
8
Layer01
10
483.430939
20
0.207556
30
0.0
0
VERTEX
100
AcDbVertex
100
AcDb2dVertex
8
Layer01
10
483.963932
20
0.202593
30
0.0
0
VERTEX
100
AcDbVertex
100
AcDb2dVertex
8
Layer01
10
484.496926
20
0.197844
30
0.0
0
VERTEX
100
AcDbVertex
100
AcDb2dVertex
8
Layer01
10
485.029919
20
0.19332
30
0.0
0
VERTEX
100
AcDbVertex
100
AcDb2dVertex
8
Layer01
10
485.563007
20
0.189153
30
0.0
0
VERTEX
100
AcDbVertex
100
AcDb2dVertex
8
Layer01
10
486.096
20
0.185213
30
0.0
0
VERTEX
100
AcDbVertex
100
AcDb2dVertex
8
Layer01
10
486.628993
20
0.181492
30
0.0
0
VERTEX
100
AcDbVertex
100
AcDb2dVertex
8
Layer01
10
487.161987
20
0.177985
30
0.0
0
VERTEX
100
AcDbVertex
100
AcDb2dVertex
8
Layer01
10
487.69498
20
0.174684
30
0.0
0
VERTEX
100
AcDbVertex
100
AcDb2dVertex
8
Layer01
10
488.227973
20
0.171579
30
0.0
0
VERTEX
100
AcDbVertex
100
AcDb2dVertex
8
Layer01
10
488.760966
20
0.168664
30
0.0
0
VERTEX
100
AcDbVertex
100
AcDb2dVertex
8
Layer01
10
489.293959
20
0.165929
30
0.0
0
VERTEX
100
AcDbVertex
100
AcDb2dVertex
8
Layer01
10
489.826952
20
0.163365
30
0.0
0
VERTEX
100
AcDbVertex
100
AcDb2dVertex
8
Layer01
10
490.359945
20
0.160966
30
0.0
0
VERTEX
100
AcDbVertex
100
AcDb2dVertex
8
Layer01
10
490.893002
20
0.158612
30
0.0
0
VERTEX
100
AcDbVertex
100
AcDb2dVertex
8
Layer01
10
491.425995
20
0.156418
30
0.0
0
VERTEX
100
AcDbVertex
100
AcDb2dVertex
8
Layer01
10
491.958988
20
0.154385
30
0.0
0
VERTEX
100
AcDbVertex
100
AcDb2dVertex
8
Layer01
10
492.491981
20
0.152519
30
0.0
0
VERTEX
100
AcDbVertex
100
AcDb2dVertex
8
Layer01
10
493.024975
20
0.150822
30
0.0
0
VERTEX
100
AcDbVertex
100
AcDb2dVertex
8
Layer01
10
493.557968
20
0.149301
30
0.0
0
VERTEX
100
AcDbVertex
100
AcDb2dVertex
8
Layer01
10
494.090961
20
0.14796
30
0.0
0
VERTEX
100
AcDbVertex
100
AcDb2dVertex
8
Layer01
10
494.623954
20
0.146806
30
0.0
0
VERTEX
100
AcDbVertex
100
AcDb2dVertex
8
Layer01
10
495.156947
20
0.145845
30
0.0
0
VERTEX
100
AcDbVertex
100
AcDb2dVertex
8
Layer01
10
495.68994
20
0.145083
30
0.0
0
VERTEX
100
AcDbVertex
100
AcDb2dVertex
8
Layer01
10
496.222997
20
0.144556
30
0.0
0
VERTEX
100
AcDbVertex
100
AcDb2dVertex
8
Layer01
10
496.75599
20
0.14424
30
0.0
0
VERTEX
100
AcDbVertex
100
AcDb2dVertex
8
Layer01
10
497.288983
20
0.144139
30
0.0
0
VERTEX
100
AcDbVertex
100
AcDb2dVertex
8
Layer01
10
497.821976
20
0.144256
30
0.0
0
VERTEX
100
AcDbVertex
100
AcDb2dVertex
8
Layer01
10
498.35497
20
0.144598
30
0.0
0
VERTEX
100
AcDbVertex
100
AcDb2dVertex
8
Layer01
10
498.887963
20
0.145168
30
0.0
0
VERTEX
100
AcDbVertex
100
AcDb2dVertex
8
Layer01
10
499.420956
20
0.145971
30
0.0
0
VERTEX
100
AcDbVertex
100
AcDb2dVertex
8
Layer01
10
499.953949
20
0.147012
30
0.0
0
VERTEX
100
AcDbVertex
100
AcDb2dVertex
8
Layer01
10
500.486942
20
0.148295
30
0.0
0
VERTEX
100
AcDbVertex
100
AcDb2dVertex
8
Layer01
10
501.019935
20
0.149826
30
0.0
0
VERTEX
100
AcDbVertex
100
AcDb2dVertex
8
Layer01
10
501.552992
20
0.151609
30
0.0
0
VERTEX
100
AcDbVertex
100
AcDb2dVertex
8
Layer01
10
502.085985
20
0.15365
30
0.0
0
VERTEX
100
AcDbVertex
100
AcDb2dVertex
8
Layer01
10
502.618978
20
0.155952
30
0.0
0
VERTEX
100
AcDbVertex
100
AcDb2dVertex
8
Layer01
10
503.151971
20
0.158521
30
0.0
0
VERTEX
100
AcDbVertex
100
AcDb2dVertex
8
Layer01
10
503.684964
20
0.161363
30
0.0
0
VERTEX
100
AcDbVertex
100
AcDb2dVertex
8
Layer01
10
504.217958
20
0.164481
30
0.0
0
VERTEX
100
AcDbVertex
100
AcDb2dVertex
8
Layer01
10
504.750951
20
0.167883
30
0.0
0
VERTEX
100
AcDbVertex
100
AcDb2dVertex
8
Layer01
10
505.283944
20
0.171571
30
0.0
0
VERTEX
100
AcDbVertex
100
AcDb2dVertex
8
Layer01
10
505.816937
20
0.175553
30
0.0
0
VERTEX
100
AcDbVertex
100
AcDb2dVertex
8
Layer01
10
506.34993
20
0.179834
30
0.0
0
VERTEX
100
AcDbVertex
100
AcDb2dVertex
8
Layer01
10
506.882987
20
0.184418
30
0.0
0
VERTEX
100
AcDbVertex
100
AcDb2dVertex
8
Layer01
10
507.41598
20
0.189311
30
0.0
0
VERTEX
100
AcDbVertex
100
AcDb2dVertex
8
Layer01
10
507.948973
20
0.194519
30
0.0
0
VERTEX
100
AcDbVertex
100
AcDb2dVertex
8
Layer01
10
508.481966
20
0.200048
30
0.0
0
VERTEX
100
AcDbVertex
100
AcDb2dVertex
8
Layer01
10
509.014959
20
0.205902
30
0.0
0
VERTEX
100
AcDbVertex
100
AcDb2dVertex
8
Layer01
10
509.547952
20
0.212089
30
0.0
0
VERTEX
100
AcDbVertex
100
AcDb2dVertex
8
Layer01
10
510.080946
20
0.218614
30
0.0
0
VERTEX
100
AcDbVertex
100
AcDb2dVertex
8
Layer01
10
510.613939
20
0.225483
30
0.0
0
VERTEX
100
AcDbVertex
100
AcDb2dVertex
8
Layer01
10
511.146932
20
0.232701
30
0.0
0
VERTEX
100
AcDbVertex
100
AcDb2dVertex
8
Layer01
10
511.679925
20
0.240275
30
0.0
0
VERTEX
100
AcDbVertex
100
AcDb2dVertex
8
Layer01
10
512.212982
20
0.248212
30
0.0
0
VERTEX
100
AcDbVertex
100
AcDb2dVertex
8
Layer01
10
512.745975
20
0.256517
30
0.0
0
VERTEX
100
AcDbVertex
100
AcDb2dVertex
8
Layer01
10
513.278968
20
0.265195
30
0.0
0
VERTEX
100
AcDbVertex
100
AcDb2dVertex
8
Layer01
10
513.811961
20
0.274254
30
0.0
0
VERTEX
100
AcDbVertex
100
AcDb2dVertex
8
Layer01
10
514.344954
20
0.2837
30
0.0
0
VERTEX
100
AcDbVertex
100
AcDb2dVertex
8
Layer01
10
514.877947
20
0.293539
30
0.0
0
VERTEX
100
AcDbVertex
100
AcDb2dVertex
8
Layer01
10
515.410941
20
0.303779
30
0.0
0
VERTEX
100
AcDbVertex
100
AcDb2dVertex
8
Layer01
10
515.943934
20
0.314424
30
0.0
0
VERTEX
100
AcDbVertex
100
AcDb2dVertex
8
Layer01
10
516.476927
20
0.325483
30
0.0
0
VERTEX
100
AcDbVertex
100
AcDb2dVertex
8
Layer01
10
517.00992
20
0.336961
30
0.0
0
VERTEX
100
AcDbVertex
100
AcDb2dVertex
8
Layer01
10
522.873003
20
0.497795
30
0.0
0
VERTEX
100
AcDbVertex
100
AcDb2dVertex
8
Layer01
10
523.405996
20
0.520228
30
0.0
0
VERTEX
100
AcDbVertex
100
AcDb2dVertex
8
Layer01
10
523.93899
20
0.543275
30
0.0
0
VERTEX
100
AcDbVertex
100
AcDb2dVertex
8
Layer01
10
524.471983
20
0.566455
30
0.0
0
VERTEX
100
AcDbVertex
100
AcDb2dVertex
8
Layer01
10
525.004976
20
0.589173
30
0.0
0
VERTEX
100
AcDbVertex
100
AcDb2dVertex
8
Layer01
10
525.537969
20
0.610705
30
0.0
0
VERTEX
100
AcDbVertex
100
AcDb2dVertex
8
Layer01
10
526.070962
20
0.630189
30
0.0
0
VERTEX
100
AcDbVertex
100
AcDb2dVertex
8
Layer01
10
526.603955
20
0.646619
30
0.0
0
VERTEX
100
AcDbVertex
100
AcDb2dVertex
8
Layer01
10
527.136948
20
0.658833
30
0.0
0
VERTEX
100
AcDbVertex
100
AcDb2dVertex
8
Layer01
10
527.669942
20
0.665503
30
0.0
0
VERTEX
100
AcDbVertex
100
AcDb2dVertex
8
Layer01
10
528.202998
20
0.665132
30
0.0
0
VERTEX
100
AcDbVertex
100
AcDb2dVertex
8
Layer01
10
528.735991
20
0.656037
30
0.0
0
VERTEX
100
AcDbVertex
100
AcDb2dVertex
8
Layer01
10
529.268984
20
0.636345
30
0.0
0
VERTEX
100
AcDbVertex
100
AcDb2dVertex
8
Layer01
10
529.801978
20
0.603982
30
0.0
0
VERTEX
100
AcDbVertex
100
AcDb2dVertex
8
Layer01
10
530.334971
20
0.556665
30
0.0
0
VERTEX
100
AcDbVertex
100
AcDb2dVertex
8
Layer01
10
530.867964
20
0.491892
30
0.0
0
VERTEX
100
AcDbVertex
100
AcDb2dVertex
8
Layer01
10
531.400957
20
0.406933
30
0.0
0
VERTEX
100
AcDbVertex
100
AcDb2dVertex
8
Layer01
10
531.93395
20
0.29882
30
0.0
0
VERTEX
100
AcDbVertex
100
AcDb2dVertex
8
Layer01
10
532.466943
20
0.164339
30
0.0
0
VERTEX
100
AcDbVertex
100
AcDb2dVertex
8
Layer01
10
532.999936
20
0.000022
30
0.0
0
VERTEX
100
AcDbVertex
100
AcDb2dVertex
8
Layer01
10
533.0
20
0.0
30
0.0
0
SEQEND
0
POLYLINE
5
 502
100
AcDbEntity
8
AXIS
66
 1
100
AcDb2dPolyline
70
 0
0
VERTEX
100
AcDbVertex
100
AcDb2dVertex
8
AXIS
10
0.0
20
0.0
30
0.0
0
VERTEX
100
AcDbVertex
100
AcDb2dVertex
8
AXIS
10
533.0
20
0.0
30
0.0
0
SEQEND
0
POLYLINE
5
 503
100
AcDbEntity
8
COFFR
66
 1
100
AcDb2dPolyline
70
 0
0
VERTEX
100
AcDbVertex
100
AcDb2dVertex
8
COFFR
10
19.999984
20
31.839343
30
0.0
0
VERTEX
100
AcDbVertex
100
AcDb2dVertex
8
COFFR
10
19.999984
20
3.569953
30
0.0
0
SEQEND
0
POLYLINE
5
 503
100
AcDbEntity
8
COFFR
66
 1
100
AcDb2dPolyline
70
 0
0
VERTEX
100
AcDbVertex
100
AcDb2dVertex
8
COFFR
10
533.0
20
0.0
30
0.0
0
VERTEX
100
AcDbVertex
100
AcDb2dVertex
8
COFFR
10
533.0
20
0.0
30
0.0
0
SEQEND
0
POLYLINE
5
 503
100
AcDbEntity
8
COFFR
66
 1
100
AcDb2dPolyline
70
 0
0
VERTEX
100
AcDbVertex
100
AcDb2dVertex
8
COFFR
10
509.082973
20
3.569402
30
0.0
0
VERTEX
100
AcDbVertex
100
AcDb2dVertex
8
COFFR
10
507.752257
20
3.785771
30
0.0
0
VERTEX
100
AcDbVertex
100
AcDb2dVertex
8
COFFR
10
506.421297
20
4.00691
30
0.0
0
VERTEX
100
AcDbVertex
100
AcDb2dVertex
8
COFFR
10
505.090368
20
4.232925
30
0.0
0
VERTEX
100
AcDbVertex
100
AcDb2dVertex
8
COFFR
10
503.759214
20
4.46311
30
0.0
0
VERTEX
100
AcDbVertex
100
AcDb2dVertex
8
COFFR
10
502.428082
20
4.69754
30
0.0
0
VERTEX
100
AcDbVertex
100
AcDb2dVertex
8
COFFR
10
501.096748
20
4.935582
30
0.0
0
VERTEX
100
AcDbVertex
100
AcDb2dVertex
8
COFFR
10
499.765434
20
5.177302
30
0.0
0
VERTEX
100
AcDbVertex
100
AcDb2dVertex
8
COFFR
10
498.433931
20
5.422111
30
0.0
0
VERTEX
100
AcDbVertex
100
AcDb2dVertex
8
COFFR
10
497.102435
20
5.670036
30
0.0
0
VERTEX
100
AcDbVertex
100
AcDb2dVertex
8
COFFR
10
495.770776
20
5.920563
30
0.0
0
VERTEX
100
AcDbVertex
100
AcDb2dVertex
8
COFFR
10
494.439119
20
6.173706
30
0.0
0
VERTEX
100
AcDbVertex
100
AcDb2dVertex
8
COFFR
10
493.107315
20
6.429004
30
0.0
0
VERTEX
100
AcDbVertex
100
AcDb2dVertex
8
COFFR
10
491.775508
20
6.686454
30
0.0
0
VERTEX
100
AcDbVertex
100
AcDb2dVertex
8
COFFR
10
490.443573
20
6.945651
30
0.0
0
VERTEX
100
AcDbVertex
100
AcDb2dVertex
8
COFFR
10
489.111636
20
7.206596
30
0.0
0
VERTEX
100
AcDbVertex
100
AcDb2dVertex
8
COFFR
10
487.77958
20
7.468913
30
0.0
0
VERTEX
100
AcDbVertex
100
AcDb2dVertex
8
COFFR
10
486.447512
20
7.732571
30
0.0
0
VERTEX
100
AcDbVertex
100
AcDb2dVertex
8
COFFR
10
485.115344
20
7.997255
30
0.0
0
VERTEX
100
AcDbVertex
100
AcDb2dVertex
8
COFFR
10
483.783165
20
8.262936
30
0.0
0
VERTEX
100
AcDbVertex
100
AcDb2dVertex
8
COFFR
10
482.450895
20
8.529328
30
0.0
0
VERTEX
100
AcDbVertex
100
AcDb2dVertex
8
COFFR
10
481.118609
20
8.796383
30
0.0
0
VERTEX
100
AcDbVertex
100
AcDb2dVertex
8
COFFR
10
479.786248
20
9.063866
30
0.0
0
VERTEX
100
AcDbVertex
100
AcDb2dVertex
8
COFFR
10
478.453872
20
9.331734
30
0.0
0
VERTEX
100
AcDbVertex
100
AcDb2dVertex
8
COFFR
10
477.121431
20
9.599784
30
0.0
0
VERTEX
100
AcDbVertex
100
AcDb2dVertex
8
COFFR
10
475.788965
20
9.86794
30
0.0
0
VERTEX
100
AcDbVertex
100
AcDb2dVertex
8
COFFR
10
474.456454
20
10.13606
30
0.0
0
VERTEX
100
AcDbVertex
100
AcDb2dVertex
8
COFFR
10
473.123921
20
10.404076
30
0.0
0
VERTEX
100
AcDbVertex
100
AcDb2dVertex
8
COFFR
10
471.791346
20
10.671857
30
0.0
0
VERTEX
100
AcDbVertex
100
AcDb2dVertex
8
COFFR
10
470.458742
20
10.939317
30
0.0
0
VERTEX
100
AcDbVertex
100
AcDb2dVertex
8
COFFR
10
469.12611
20
11.206367
30
0.0
0
VERTEX
100
AcDbVertex
100
AcDb2dVertex
8
COFFR
10
467.793454
20
11.47293
30
0.0
0
VERTEX
100
AcDbVertex
100
AcDb2dVertex
8
COFFR
10
466.460774
20
11.738935
30
0.0
0
VERTEX
100
AcDbVertex
100
AcDb2dVertex
8
COFFR
10
465.128068
20
12.0043
30
0.0
0
VERTEX
100
AcDbVertex
100
AcDb2dVertex
8
COFFR
10
463.795349
20
12.268986
30
0.0
0
VERTEX
100
AcDbVertex
100
AcDb2dVertex
8
COFFR
10
462.46261
20
12.532928
30
0.0
0
VERTEX
100
AcDbVertex
100
AcDb2dVertex
8
COFFR
10
461.129857
20
12.796088
30
0.0
0
VERTEX
100
AcDbVertex
100
AcDb2dVertex
8
COFFR
10
459.79708
20
13.058387
30
0.0
0
VERTEX
100
AcDbVertex
100
AcDb2dVertex
8
COFFR
10
458.464301
20
13.319819
30
0.0
0
VERTEX
100
AcDbVertex
100
AcDb2dVertex
8
COFFR
10
457.131502
20
13.580322
30
0.0
0
VERTEX
100
AcDbVertex
100
AcDb2dVertex
8
COFFR
10
455.7987
20
13.839891
30
0.0
0
VERTEX
100
AcDbVertex
100
AcDb2dVertex
8
COFFR
10
454.465878
20
14.098458
30
0.0
0
VERTEX
100
AcDbVertex
100
AcDb2dVertex
8
COFFR
10
453.13306
20
14.356042
30
0.0
0
VERTEX
100
AcDbVertex
100
AcDb2dVertex
8
COFFR
10
451.800227
20
14.612592
30
0.0
0
VERTEX
100
AcDbVertex
100
AcDb2dVertex
8
COFFR
10
450.467401
20
14.868129
30
0.0
0
VERTEX
100
AcDbVertex
100
AcDb2dVertex
8
COFFR
10
449.134559
20
15.122606
30
0.0
0
VERTEX
100
AcDbVertex
100
AcDb2dVertex
8
COFFR
10
447.801729
20
15.37606
30
0.0
0
VERTEX
100
AcDbVertex
100
AcDb2dVertex
8
COFFR
10
446.468892
20
15.628466
30
0.0
0
VERTEX
100
AcDbVertex
100
AcDb2dVertex
8
COFFR
10
445.136064
20
15.879857
30
0.0
0
VERTEX
100
AcDbVertex
100
AcDb2dVertex
8
COFFR
10
443.80322
20
16.130181
30
0.0
0
VERTEX
100
AcDbVertex
100
AcDb2dVertex
8
COFFR
10
442.470399
20
16.379508
30
0.0
0
VERTEX
100
AcDbVertex
100
AcDb2dVertex
8
COFFR
10
441.137565
20
16.627799
30
0.0
0
VERTEX
100
AcDbVertex
100
AcDb2dVertex
8
COFFR
10
439.804751
20
16.875118
30
0.0
0
VERTEX
100
AcDbVertex
100
AcDb2dVertex
8
COFFR
10
438.471926
20
17.121428
30
0.0
0
VERTEX
100
AcDbVertex
100
AcDb2dVertex
8
COFFR
10
437.139124
20
17.366803
30
0.0
0
VERTEX
100
AcDbVertex
100
AcDb2dVertex
8
COFFR
10
435.806416
20
17.611532
30
0.0
0
VERTEX
100
AcDbVertex
100
AcDb2dVertex
8
COFFR
10
434.473584
20
17.855229
30
0.0
0
VERTEX
100
AcDbVertex
100
AcDb2dVertex
8
COFFR
10
433.140707
20
18.097755
30
0.0
0
VERTEX
100
AcDbVertex
100
AcDb2dVertex
8
COFFR
10
431.807849
20
18.339174
30
0.0
0
VERTEX
100
AcDbVertex
100
AcDb2dVertex
8
COFFR
10
430.474623
20
18.57833
30
0.0
0
VERTEX
100
AcDbVertex
100
AcDb2dVertex
8
COFFR
10
429.142067
20
18.817328
30
0.0
0
VERTEX
100
AcDbVertex
100
AcDb2dVertex
8
COFFR
10
427.809816
20
19.057106
30
0.0
0
VERTEX
100
AcDbVertex
100
AcDb2dVertex
8
COFFR
10
426.477789
20
19.298358
30
0.0
0
VERTEX
100
AcDbVertex
100
AcDb2dVertex
8
COFFR
10
425.14661
20
19.54373
30
0.0
0
VERTEX
100
AcDbVertex
100
AcDb2dVertex
8
COFFR
10
423.814597
20
19.790592
30
0.0
0
VERTEX
100
AcDbVertex
100
AcDb2dVertex
8
COFFR
10
422.48238
20
20.038325
30
0.0
0
VERTEX
100
AcDbVertex
100
AcDb2dVertex
8
COFFR
10
421.149866
20
20.286007
30
0.0
0
VERTEX
100
AcDbVertex
100
AcDb2dVertex
8
COFFR
10
419.816708
20
20.53163
30
0.0
0
VERTEX
100
AcDbVertex
100
AcDb2dVertex
8
COFFR
10
418.483912
20
20.776347
30
0.0
0
VERTEX
100
AcDbVertex
100
AcDb2dVertex
8
COFFR
10
417.151112
20
21.020134
30
0.0
0
VERTEX
100
AcDbVertex
100
AcDb2dVertex
8
COFFR
10
415.818353
20
21.263115
30
0.0
0
VERTEX
100
AcDbVertex
100
AcDb2dVertex
8
COFFR
10
414.485728
20
21.505713
30
0.0
0
VERTEX
100
AcDbVertex
100
AcDb2dVertex
8
COFFR
10
413.153008
20
21.747627
30
0.0
0
VERTEX
100
AcDbVertex
100
AcDb2dVertex
8
COFFR
10
411.820276
20
21.988821
30
0.0
0
VERTEX
100
AcDbVertex
100
AcDb2dVertex
8
COFFR
10
410.487553
20
22.229322
30
0.0
0
VERTEX
100
AcDbVertex
100
AcDb2dVertex
8
COFFR
10
409.154819
20
22.469098
30
0.0
0
VERTEX
100
AcDbVertex
100
AcDb2dVertex
8
COFFR
10
407.82209
20
22.708164
30
0.0
0
VERTEX
100
AcDbVertex
100
AcDb2dVertex
8
COFFR
10
406.489347
20
22.946476
30
0.0
0
VERTEX
100
AcDbVertex
100
AcDb2dVertex
8
COFFR
10
405.156612
20
23.18406
30
0.0
0
VERTEX
100
AcDbVertex
100
AcDb2dVertex
8
COFFR
10
403.823867
20
23.420883
30
0.0
0
VERTEX
100
AcDbVertex
100
AcDb2dVertex
8
COFFR
10
402.491128
20
23.656964
30
0.0
0
VERTEX
100
AcDbVertex
100
AcDb2dVertex
8
COFFR
10
401.158375
20
23.892262
30
0.0
0
VERTEX
100
AcDbVertex
100
AcDb2dVertex
8
COFFR
10
399.825632
20
24.126805
30
0.0
0
VERTEX
100
AcDbVertex
100
AcDb2dVertex
8
COFFR
10
398.492879
20
24.360563
30
0.0
0
VERTEX
100
AcDbVertex
100
AcDb2dVertex
8
COFFR
10
397.160133
20
24.593558
30
0.0
0
VERTEX
100
AcDbVertex
100
AcDb2dVertex
8
COFFR
10
395.827376
20
24.825755
30
0.0
0
VERTEX
100
AcDbVertex
100
AcDb2dVertex
8
COFFR
10
394.494628
20
25.057184
30
0.0
0
VERTEX
100
AcDbVertex
100
AcDb2dVertex
8
COFFR
10
393.161874
20
25.287826
30
0.0
0
VERTEX
100
AcDbVertex
100
AcDb2dVertex
8
COFFR
10
391.829123
20
25.517689
30
0.0
0
VERTEX
100
AcDbVertex
100
AcDb2dVertex
8
COFFR
10
390.496359
20
25.746733
30
0.0
0
VERTEX
100
AcDbVertex
100
AcDb2dVertex
8
COFFR
10
389.163603
20
25.974984
30
0.0
0
VERTEX
100
AcDbVertex
100
AcDb2dVertex
8
COFFR
10
387.830836
20
26.202406
30
0.0
0
VERTEX
100
AcDbVertex
100
AcDb2dVertex
8
COFFR
10
386.498077
20
26.429024
30
0.0
0
VERTEX
100
AcDbVertex
100
AcDb2dVertex
8
COFFR
10
385.165307
20
26.654806
30
0.0
0
VERTEX
100
AcDbVertex
100
AcDb2dVertex
8
COFFR
10
383.832546
20
26.879778
30
0.0
0
VERTEX
100
AcDbVertex
100
AcDb2dVertex
8
COFFR
10
382.499785
20
27.103941
30
0.0
0
VERTEX
100
AcDbVertex
100
AcDb2dVertex
8
COFFR
10
381.16702
20
27.327281
30
0.0
0
VERTEX
100
AcDbVertex
100
AcDb2dVertex
8
COFFR
10
379.834243
20
27.549762
30
0.0
0
VERTEX
100
AcDbVertex
100
AcDb2dVertex
8
COFFR
10
378.501474
20
27.771407
30
0.0
0
VERTEX
100
AcDbVertex
100
AcDb2dVertex
8
COFFR
10
377.168678
20
27.992133
30
0.0
0
VERTEX
100
AcDbVertex
100
AcDb2dVertex
8
COFFR
10
375.835923
20
28.212069
30
0.0
0
VERTEX
100
AcDbVertex
100
AcDb2dVertex
8
COFFR
10
374.50317
20
28.43122
30
0.0
0
VERTEX
100
AcDbVertex
100
AcDb2dVertex
8
COFFR
10
373.170441
20
28.649665
30
0.0
0
VERTEX
100
AcDbVertex
100
AcDb2dVertex
8
COFFR
10
371.837747
20
28.867506
30
0.0
0
VERTEX
100
AcDbVertex
100
AcDb2dVertex
8
COFFR
10
370.505016
20
29.084629
30
0.0
0
VERTEX
100
AcDbVertex
100
AcDb2dVertex
8
COFFR
10
369.172257
20
29.300951
30
0.0
0
VERTEX
100
AcDbVertex
100
AcDb2dVertex
8
COFFR
10
367.839495
20
29.51646
30
0.0
0
VERTEX
100
AcDbVertex
100
AcDb2dVertex
8
COFFR
10
366.506685
20
29.731004
30
0.0
0
VERTEX
100
AcDbVertex
100
AcDb2dVertex
8
COFFR
10
365.173905
20
29.944682
30
0.0
0
VERTEX
100
AcDbVertex
100
AcDb2dVertex
8
COFFR
10
363.84111
20
30.157444
30
0.0
0
VERTEX
100
AcDbVertex
100
AcDb2dVertex
8
COFFR
10
362.50833
20
30.369339
30
0.0
0
VERTEX
100
AcDbVertex
100
AcDb2dVertex
8
COFFR
10
361.175548
20
30.580357
30
0.0
0
VERTEX
100
AcDbVertex
100
AcDb2dVertex
8
COFFR
10
359.842768
20
30.790507
30
0.0
0
VERTEX
100
AcDbVertex
100
AcDb2dVertex
8
COFFR
10
358.509972
20
30.99974
30
0.0
0
VERTEX
100
AcDbVertex
100
AcDb2dVertex
8
COFFR
10
357.177189
20
31.208095
30
0.0
0
VERTEX
100
AcDbVertex
100
AcDb2dVertex
8
COFFR
10
355.844393
20
31.415531
30
0.0
0
VERTEX
100
AcDbVertex
100
AcDb2dVertex
8
COFFR
10
354.511606
20
31.622079
30
0.0
0
VERTEX
100
AcDbVertex
100
AcDb2dVertex
8
COFFR
10
353.178805
20
31.827691
30
0.0
0
VERTEX
100
AcDbVertex
100
AcDb2dVertex
8
COFFR
10
351.846015
20
32.032406
30
0.0
0
VERTEX
100
AcDbVertex
100
AcDb2dVertex
8
COFFR
10
350.513214
20
32.236187
30
0.0
0
VERTEX
100
AcDbVertex
100
AcDb2dVertex
8
COFFR
10
349.180422
20
32.439063
30
0.0
0
VERTEX
100
AcDbVertex
100
AcDb2dVertex
8
COFFR
10
347.847617
20
32.64099
30
0.0
0
VERTEX
100
AcDbVertex
100
AcDb2dVertex
8
COFFR
10
346.514823
20
32.842006
30
0.0
0
VERTEX
100
AcDbVertex
100
AcDb2dVertex
8
COFFR
10
345.182019
20
33.042081
30
0.0
0
VERTEX
100
AcDbVertex
100
AcDb2dVertex
8
COFFR
10
343.849224
20
33.24124
30
0.0
0
VERTEX
100
AcDbVertex
100
AcDb2dVertex
8
COFFR
10
342.51641
20
33.439424
30
0.0
0
VERTEX
100
AcDbVertex
100
AcDb2dVertex
8
COFFR
10
341.183613
20
33.636688
30
0.0
0
VERTEX
100
AcDbVertex
100
AcDb2dVertex
8
COFFR
10
339.850798
20
33.832973
30
0.0
0
VERTEX
100
AcDbVertex
100
AcDb2dVertex
8
COFFR
10
338.517998
20
34.028329
30
0.0
0
VERTEX
100
AcDbVertex
100
AcDb2dVertex
8
COFFR
10
337.185178
20
34.222693
30
0.0
0
VERTEX
100
AcDbVertex
100
AcDb2dVertex
8
COFFR
10
335.852376
20
34.41612
30
0.0
0
VERTEX
100
AcDbVertex
100
AcDb2dVertex
8
COFFR
10
334.519558
20
34.608561
30
0.0
0
VERTEX
100
AcDbVertex
100
AcDb2dVertex
8
COFFR
10
333.186754
20
34.800058
30
0.0
0
VERTEX
100
AcDbVertex
100
AcDb2dVertex
8
COFFR
10
331.85393
20
34.990552
30
0.0
0
VERTEX
100
AcDbVertex
100
AcDb2dVertex
8
COFFR
10
330.521124
20
35.180096
30
0.0
0
VERTEX
100
AcDbVertex
100
AcDb2dVertex
8
COFFR
10
329.188297
20
35.368628
30
0.0
0
VERTEX
100
AcDbVertex
100
AcDb2dVertex
8
COFFR
10
327.855491
20
35.556207
30
0.0
0
VERTEX
100
AcDbVertex
100
AcDb2dVertex
8
COFFR
10
326.522667
20
35.742782
30
0.0
0
VERTEX
100
AcDbVertex
100
AcDb2dVertex
8
COFFR
10
325.189859
20
35.928402
30
0.0
0
VERTEX
100
AcDbVertex
100
AcDb2dVertex
8
COFFR
10
323.857052
20
36.113072
30
0.0
0
VERTEX
100
AcDbVertex
100
AcDb2dVertex
8
COFFR
10
322.524228
20
36.296737
30
0.0
0
VERTEX
100
AcDbVertex
100
AcDb2dVertex
8
COFFR
10
321.191372
20
36.479297
30
0.0
0
VERTEX
100
AcDbVertex
100
AcDb2dVertex
8
COFFR
10
319.858522
20
36.660771
30
0.0
0
VERTEX
100
AcDbVertex
100
AcDb2dVertex
8
COFFR
10
318.525617
20
36.840988
30
0.0
0
VERTEX
100
AcDbVertex
100
AcDb2dVertex
8
COFFR
10
317.192766
20
37.020116
30
0.0
0
VERTEX
100
AcDbVertex
100
AcDb2dVertex
8
COFFR
10
315.859906
20
37.198129
30
0.0
0
VERTEX
100
AcDbVertex
100
AcDb2dVertex
8
COFFR
10
314.527077
20
37.375122
30
0.0
0
VERTEX
100
AcDbVertex
100
AcDb2dVertex
8
COFFR
10
313.194265
20
37.551147
30
0.0
0
VERTEX
100
AcDbVertex
100
AcDb2dVertex
8
COFFR
10
311.86145
20
37.726194
30
0.0
0
VERTEX
100
AcDbVertex
100
AcDb2dVertex
8
COFFR
10
310.528614
20
37.9002
30
0.0
0
VERTEX
100
AcDbVertex
100
AcDb2dVertex
8
COFFR
10
309.195798
20
38.073225
30
0.0
0
VERTEX
100
AcDbVertex
100
AcDb2dVertex
8
COFFR
10
307.862956
20
38.245191
30
0.0
0
VERTEX
100
AcDbVertex
100
AcDb2dVertex
8
COFFR
10
306.530137
20
38.416168
30
0.0
0
VERTEX
100
AcDbVertex
100
AcDb2dVertex
8
COFFR
10
305.197296
20
38.586088
30
0.0
0
VERTEX
100
AcDbVertex
100
AcDb2dVertex
8
COFFR
10
303.864476
20
38.755014
30
0.0
0
VERTEX
100
AcDbVertex
100
AcDb2dVertex
8
COFFR
10
302.531637
20
38.922889
30
0.0
0
VERTEX
100
AcDbVertex
100
AcDb2dVertex
8
COFFR
10
301.198815
20
39.089766
30
0.0
0
VERTEX
100
AcDbVertex
100
AcDb2dVertex
8
COFFR
10
299.865972
20
39.255578
30
0.0
0
VERTEX
100
AcDbVertex
100
AcDb2dVertex
8
COFFR
10
298.533148
20
39.420387
30
0.0
0
VERTEX
100
AcDbVertex
100
AcDb2dVertex
8
COFFR
10
297.200306
20
39.584134
30
0.0
0
VERTEX
100
AcDbVertex
100
AcDb2dVertex
8
COFFR
10
295.86748
20
39.746872
30
0.0
0
VERTEX
100
AcDbVertex
100
AcDb2dVertex
8
COFFR
10
294.534634
20
39.908535
30
0.0
0
VERTEX
100
AcDbVertex
100
AcDb2dVertex
8
COFFR
10
293.201807
20
40.069184
30
0.0
0
VERTEX
100
AcDbVertex
100
AcDb2dVertex
8
COFFR
10
291.868961
20
40.228761
30
0.0
0
VERTEX
100
AcDbVertex
100
AcDb2dVertex
8
COFFR
10
290.536133
20
40.387319
30
0.0
0
VERTEX
100
AcDbVertex
100
AcDb2dVertex
8
COFFR
10
289.203284
20
40.544794
30
0.0
0
VERTEX
100
AcDbVertex
100
AcDb2dVertex
8
COFFR
10
287.870454
20
40.701245
30
0.0
0
VERTEX
100
AcDbVertex
100
AcDb2dVertex
8
COFFR
10
286.537606
20
40.85662
30
0.0
0
VERTEX
100
AcDbVertex
100
AcDb2dVertex
8
COFFR
10
285.204774
20
41.010963
30
0.0
0
VERTEX
100
AcDbVertex
100
AcDb2dVertex
8
COFFR
10
283.87192
20
41.164208
30
0.0
0
VERTEX
100
AcDbVertex
100
AcDb2dVertex
8
COFFR
10
282.539083
20
41.316411
30
0.0
0
VERTEX
100
AcDbVertex
100
AcDb2dVertex
8
COFFR
10
281.206227
20
41.467508
30
0.0
0
VERTEX
100
AcDbVertex
100
AcDb2dVertex
8
COFFR
10
279.873389
20
41.617557
30
0.0
0
VERTEX
100
AcDbVertex
100
AcDb2dVertex
8
COFFR
10
278.540528
20
41.766485
30
0.0
0
VERTEX
100
AcDbVertex
100
AcDb2dVertex
8
COFFR
10
277.207689
20
41.914364
30
0.0
0
VERTEX
100
AcDbVertex
100
AcDb2dVertex
8
COFFR
10
275.874848
20
42.061186
30
0.0
0
VERTEX
100
AcDbVertex
100
AcDb2dVertex
8
COFFR
10
274.541998
20
42.206921
30
0.0
0
VERTEX
100
AcDbVertex
100
AcDb2dVertex
8
COFFR
10
273.209114
20
42.351466
30
0.0
0
VERTEX
100
AcDbVertex
100
AcDb2dVertex
8
COFFR
10
271.876251
20
42.494885
30
0.0
0
VERTEX
100
AcDbVertex
100
AcDb2dVertex
8
COFFR
10
270.543291
20
42.636876
30
0.0
0
VERTEX
100
AcDbVertex
100
AcDb2dVertex
8
COFFR
10
269.210479
20
42.777901
30
0.0
0
VERTEX
100
AcDbVertex
100
AcDb2dVertex
8
COFFR
10
267.877701
20
42.918063
30
0.0
0
VERTEX
100
AcDbVertex
100
AcDb2dVertex
8
COFFR
10
266.544984
20
43.057554
30
0.0
0
VERTEX
100
AcDbVertex
100
AcDb2dVertex
8
COFFR
10
265.212408
20
43.196812
30
0.0
0
VERTEX
100
AcDbVertex
100
AcDb2dVertex
8
COFFR
10
263.879683
20
43.335372
30
0.0
0
VERTEX
100
AcDbVertex
100
AcDb2dVertex
8
COFFR
10
262.546889
20
43.473016
30
0.0
0
VERTEX
100
AcDbVertex
100
AcDb2dVertex
8
COFFR
10
261.214054
20
43.609621
30
0.0
0
VERTEX
100
AcDbVertex
100
AcDb2dVertex
8
COFFR
10
259.881061
20
43.744695
30
0.0
0
VERTEX
100
AcDbVertex
100
AcDb2dVertex
8
COFFR
10
258.54816
20
43.878528
30
0.0
0
VERTEX
100
AcDbVertex
100
AcDb2dVertex
8
COFFR
10
257.21523
20
44.011025
30
0.0
0
VERTEX
100
AcDbVertex
100
AcDb2dVertex
8
COFFR
10
255.882328
20
44.142276
30
0.0
0
VERTEX
100
AcDbVertex
100
AcDb2dVertex
8
COFFR
10
254.549425
20
44.272277
30
0.0
0
VERTEX
100
AcDbVertex
100
AcDb2dVertex
8
COFFR
10
253.216521
20
44.401027
30
0.0
0
VERTEX
100
AcDbVertex
100
AcDb2dVertex
8
COFFR
10
251.883583
20
44.528418
30
0.0
0
VERTEX
100
AcDbVertex
100
AcDb2dVertex
8
COFFR
10
250.550668
20
44.654521
30
0.0
0
VERTEX
100
AcDbVertex
100
AcDb2dVertex
8
COFFR
10
249.217718
20
44.779229
30
0.0
0
VERTEX
100
AcDbVertex
100
AcDb2dVertex
8
COFFR
10
247.88479
20
44.902611
30
0.0
0
VERTEX
100
AcDbVertex
100
AcDb2dVertex
8
COFFR
10
246.551825
20
45.02455
30
0.0
0
VERTEX
100
AcDbVertex
100
AcDb2dVertex
8
COFFR
10
245.218884
20
45.145123
30
0.0
0
VERTEX
100
AcDbVertex
100
AcDb2dVertex
8
COFFR
10
243.885906
20
45.264213
30
0.0
0
VERTEX
100
AcDbVertex
100
AcDb2dVertex
8
COFFR
10
242.552954
20
45.381902
30
0.0
0
VERTEX
100
AcDbVertex
100
AcDb2dVertex
8
COFFR
10
241.219964
20
45.498071
30
0.0
0
VERTEX
100
AcDbVertex
100
AcDb2dVertex
8
COFFR
10
239.887002
20
45.612807
30
0.0
0
VERTEX
100
AcDbVertex
100
AcDb2dVertex
8
COFFR
10
238.554004
20
45.725999
30
0.0
0
VERTEX
100
AcDbVertex
100
AcDb2dVertex
8
COFFR
10
237.22103
20
45.837721
30
0.0
0
VERTEX
100
AcDbVertex
100
AcDb2dVertex
8
COFFR
10
235.888014
20
45.947842
30
0.0
0
VERTEX
100
AcDbVertex
100
AcDb2dVertex
8
COFFR
10
234.555027
20
46.056453
30
0.0
0
VERTEX
100
AcDbVertex
100
AcDb2dVertex
8
COFFR
10
233.221997
20
46.163421
30
0.0
0
VERTEX
100
AcDbVertex
100
AcDb2dVertex
8
COFFR
10
231.888998
20
46.26884
30
0.0
0
VERTEX
100
AcDbVertex
100
AcDb2dVertex
8
COFFR
10
230.555955
20
46.372576
30
0.0
0
VERTEX
100
AcDbVertex
100
AcDb2dVertex
8
COFFR
10
229.222944
20
46.474728
30
0.0
0
VERTEX
100
AcDbVertex
100
AcDb2dVertex
8
COFFR
10
227.889891
20
46.575165
30
0.0
0
VERTEX
100
AcDbVertex
100
AcDb2dVertex
8
COFFR
10
226.55687
20
46.673984
30
0.0
0
VERTEX
100
AcDbVertex
100
AcDb2dVertex
8
COFFR
10
225.223803
20
46.771047
30
0.0
0
VERTEX
100
AcDbVertex
100
AcDb2dVertex
8
COFFR
10
223.890771
20
46.86646
30
0.0
0
VERTEX
100
AcDbVertex
100
AcDb2dVertex
8
COFFR
10
222.557647
20
46.959937
30
0.0
0
VERTEX
100
AcDbVertex
100
AcDb2dVertex
8
COFFR
10
221.224626
20
47.0518
30
0.0
0
VERTEX
100
AcDbVertex
100
AcDb2dVertex
8
COFFR
10
219.891577
20
47.141958
30
0.0
0
VERTEX
100
AcDbVertex
100
AcDb2dVertex
8
COFFR
10
218.558565
20
47.230532
30
0.0
0
VERTEX
100
AcDbVertex
100
AcDb2dVertex
8
COFFR
10
217.225691
20
47.317945
30
0.0
0
VERTEX
100
AcDbVertex
100
AcDb2dVertex
8
COFFR
10
215.892527
20
47.403299
30
0.0
0
VERTEX
100
AcDbVertex
100
AcDb2dVertex
8
COFFR
10
214.559162
20
47.485968
30
0.0
0
VERTEX
100
AcDbVertex
100
AcDb2dVertex
8
COFFR
10
213.225735
20
47.565763
30
0.0
0
VERTEX
100
AcDbVertex
100
AcDb2dVertex
8
COFFR
10
211.891838
20
47.641221
30
0.0
0
VERTEX
100
AcDbVertex
100
AcDb2dVertex
8
COFFR
10
210.558408
20
47.713799
30
0.0
0
VERTEX
100
AcDbVertex
100
AcDb2dVertex
8
COFFR
10
209.225037
20
47.783677
30
0.0
0
VERTEX
100
AcDbVertex
100
AcDb2dVertex
8
COFFR
10
207.891865
20
47.851474
30
0.0
0
VERTEX
100
AcDbVertex
100
AcDb2dVertex
8
COFFR
10
206.558979
20
47.918075
30
0.0
0
VERTEX
100
AcDbVertex
100
AcDb2dVertex
8
COFFR
10
205.225953
20
47.983046
30
0.0
0
VERTEX
100
AcDbVertex
100
AcDb2dVertex
8
COFFR
10
203.892884
20
48.046251
30
0.0
0
VERTEX
100
AcDbVertex
100
AcDb2dVertex
8
COFFR
10
202.559844
20
48.107781
30
0.0
0
VERTEX
100
AcDbVertex
100
AcDb2dVertex
8
COFFR
10
201.226691
20
48.167285
30
0.0
0
VERTEX
100
AcDbVertex
100
AcDb2dVertex
8
COFFR
10
199.893634
20
48.225062
30
0.0
0
VERTEX
100
AcDbVertex
100
AcDb2dVertex
8
COFFR
10
198.560535
20
48.280984
30
0.0
0
VERTEX
100
AcDbVertex
100
AcDb2dVertex
8
COFFR
10
197.227484
20
48.335197
30
0.0
0
VERTEX
100
AcDbVertex
100
AcDb2dVertex
8
COFFR
10
195.894395
20
48.387583
30
0.0
0
VERTEX
100
AcDbVertex
100
AcDb2dVertex
8
COFFR
10
194.561348
20
48.438274
30
0.0
0
VERTEX
100
AcDbVertex
100
AcDb2dVertex
8
COFFR
10
193.228259
20
48.487138
30
0.0
0
VERTEX
100
AcDbVertex
100
AcDb2dVertex
8
COFFR
10
191.895215
20
48.534314
30
0.0
0
VERTEX
100
AcDbVertex
100
AcDb2dVertex
8
COFFR
10
190.562127
20
48.579666
30
0.0
0
VERTEX
100
AcDbVertex
100
AcDb2dVertex
8
COFFR
10
189.229087
20
48.623344
30
0.0
0
VERTEX
100
AcDbVertex
100
AcDb2dVertex
8
COFFR
10
187.896007
20
48.665225
30
0.0
0
VERTEX
100
AcDbVertex
100
AcDb2dVertex
8
COFFR
10
186.562973
20
48.70545
30
0.0
0
VERTEX
100
AcDbVertex
100
AcDb2dVertex
8
COFFR
10
185.229903
20
48.743908
30
0.0
0
VERTEX
100
AcDbVertex
100
AcDb2dVertex
8
COFFR
10
183.896872
20
48.780719
30
0.0
0
VERTEX
100
AcDbVertex
100
AcDb2dVertex
8
COFFR
10
182.563798
20
48.815752
30
0.0
0
VERTEX
100
AcDbVertex
100
AcDb2dVertex
8
COFFR
10
181.230767
20
48.849138
30
0.0
0
VERTEX
100
AcDbVertex
100
AcDb2dVertex
8
COFFR
10
179.897691
20
48.880736
30
0.0
0
VERTEX
100
AcDbVertex
100
AcDb2dVertex
8
COFFR
10
178.564661
20
48.910693
30
0.0
0
VERTEX
100
AcDbVertex
100
AcDb2dVertex
8
COFFR
10
177.23159
20
48.938879
30
0.0
0
VERTEX
100
AcDbVertex
100
AcDb2dVertex
8
COFFR
10
175.898564
20
48.965432
30
0.0
0
VERTEX
100
AcDbVertex
100
AcDb2dVertex
8
COFFR
10
174.565498
20
48.990232
30
0.0
0
VERTEX
100
AcDbVertex
100
AcDb2dVertex
8
COFFR
10
173.232471
20
49.013399
30
0.0
0
VERTEX
100
AcDbVertex
100
AcDb2dVertex
8
COFFR
10
171.8994
20
49.034794
30
0.0
0
VERTEX
100
AcDbVertex
100
AcDb2dVertex
8
COFFR
10
170.56637
20
49.054545
30
0.0
0
VERTEX
100
AcDbVertex
100
AcDb2dVertex
8
COFFR
10
169.233341
20
49.072656
30
0.0
0
VERTEX
100
AcDbVertex
100
AcDb2dVertex
8
COFFR
10
167.900285
20
49.089042
30
0.0
0
VERTEX
100
AcDbVertex
100
AcDb2dVertex
8
COFFR
10
166.567163
20
49.1035
30
0.0
0
VERTEX
100
AcDbVertex
100
AcDb2dVertex
8
COFFR
10
165.234082
20
49.116156
30
0.0
0
VERTEX
100
AcDbVertex
100
AcDb2dVertex
8
COFFR
10
163.900766
20
49.126281
30
0.0
0
VERTEX
100
AcDbVertex
100
AcDb2dVertex
8
COFFR
10
162.567822
20
49.135032
30
0.0
0
VERTEX
100
AcDbVertex
100
AcDb2dVertex
8
COFFR
10
161.234985
20
49.142737
30
0.0
0
VERTEX
100
AcDbVertex
100
AcDb2dVertex
8
COFFR
10
159.902291
20
49.14984
30
0.0
0
VERTEX
100
AcDbVertex
100
AcDb2dVertex
8
COFFR
10
158.569978
20
49.157524
30
0.0
0
VERTEX
100
AcDbVertex
100
AcDb2dVertex
8
COFFR
10
157.237263
20
49.164541
30
0.0
0
VERTEX
100
AcDbVertex
100
AcDb2dVertex
8
COFFR
10
155.904379
20
49.170367
30
0.0
0
VERTEX
100
AcDbVertex
100
AcDb2dVertex
8
COFFR
10
154.571373
20
49.174624
30
0.0
0
VERTEX
100
AcDbVertex
100
AcDb2dVertex
8
COFFR
10
153.237962
20
49.176056
30
0.0
0
VERTEX
100
AcDbVertex
100
AcDb2dVertex
8
COFFR
10
151.905218
20
49.175379
30
0.0
0
VERTEX
100
AcDbVertex
100
AcDb2dVertex
8
COFFR
10
150.573465
20
49.172388
30
0.0
0
VERTEX
100
AcDbVertex
100
AcDb2dVertex
8
COFFR
10
149.241651
20
49.167269
30
0.0
0
VERTEX
100
AcDbVertex
100
AcDb2dVertex
8
COFFR
10
147.909834
20
49.160033
30
0.0
0
VERTEX
100
AcDbVertex
100
AcDb2dVertex
8
COFFR
10
146.578026
20
49.150652
30
0.0
0
VERTEX
100
AcDbVertex
100
AcDb2dVertex
8
COFFR
10
145.246292
20
49.138895
30
0.0
0
VERTEX
100
AcDbVertex
100
AcDb2dVertex
8
COFFR
10
143.914514
20
49.124899
30
0.0
0
VERTEX
100
AcDbVertex
100
AcDb2dVertex
8
COFFR
10
142.582814
20
49.108423
30
0.0
0
VERTEX
100
AcDbVertex
100
AcDb2dVertex
8
COFFR
10
141.251067
20
49.089611
30
0.0
0
VERTEX
100
AcDbVertex
100
AcDb2dVertex
8
COFFR
10
139.919402
20
49.068209
30
0.0
0
VERTEX
100
AcDbVertex
100
AcDb2dVertex
8
COFFR
10
138.587689
20
49.04437
30
0.0
0
VERTEX
100
AcDbVertex
100
AcDb2dVertex
8
COFFR
10
137.25606
20
49.017827
30
0.0
0
VERTEX
100
AcDbVertex
100
AcDb2dVertex
8
COFFR
10
135.924379
20
48.988746
30
0.0
0
VERTEX
100
AcDbVertex
100
AcDb2dVertex
8
COFFR
10
134.592785
20
48.956855
30
0.0
0
VERTEX
100
AcDbVertex
100
AcDb2dVertex
8
COFFR
10
133.261137
20
48.922324
30
0.0
0
VERTEX
100
AcDbVertex
100
AcDb2dVertex
8
COFFR
10
131.929578
20
48.884874
30
0.0
0
VERTEX
100
AcDbVertex
100
AcDb2dVertex
8
COFFR
10
130.597964
20
48.844677
30
0.0
0
VERTEX
100
AcDbVertex
100
AcDb2dVertex
8
COFFR
10
129.266444
20
48.801443
30
0.0
0
VERTEX
100
AcDbVertex
100
AcDb2dVertex
8
COFFR
10
127.934945
20
48.755106
30
0.0
0
VERTEX
100
AcDbVertex
100
AcDb2dVertex
8
COFFR
10
126.603307
20
48.706095
30
0.0
0
VERTEX
100
AcDbVertex
100
AcDb2dVertex
8
COFFR
10
125.271842
20
48.653875
30
0.0
0
VERTEX
100
AcDbVertex
100
AcDb2dVertex
8
COFFR
10
123.940396
20
48.598387
30
0.0
0
VERTEX
100
AcDbVertex
100
AcDb2dVertex
8
COFFR
10
122.60897
20
48.539568
30
0.0
0
VERTEX
100
AcDbVertex
100
AcDb2dVertex
8
COFFR
10
121.277393
20
48.47789
30
0.0
0
VERTEX
100
AcDbVertex
100
AcDb2dVertex
8
COFFR
10
119.946002
20
48.412774
30
0.0
0
VERTEX
100
AcDbVertex
100
AcDb2dVertex
8
COFFR
10
118.614632
20
48.344152
30
0.0
0
VERTEX
100
AcDbVertex
100
AcDb2dVertex
8
COFFR
10
117.283287
20
48.27195
30
0.0
0
VERTEX
100
AcDbVertex
100
AcDb2dVertex
8
COFFR
10
115.951786
20
48.19665
30
0.0
0
VERTEX
100
AcDbVertex
100
AcDb2dVertex
8
COFFR
10
114.62047
20
48.11768
30
0.0
0
VERTEX
100
AcDbVertex
100
AcDb2dVertex
8
COFFR
10
113.289166
20
48.035002
30
0.0
0
VERTEX
100
AcDbVertex
100
AcDb2dVertex
8
COFFR
10
111.957868
20
47.948598
30
0.0
0
VERTEX
100
AcDbVertex
100
AcDb2dVertex
8
COFFR
10
110.62638
20
47.859054
30
0.0
0
VERTEX
100
AcDbVertex
100
AcDb2dVertex
8
COFFR
10
109.295156
20
47.765557
30
0.0
0
VERTEX
100
AcDbVertex
100
AcDb2dVertex
8
COFFR
10
107.964007
20
47.667869
30
0.0
0
VERTEX
100
AcDbVertex
100
AcDb2dVertex
8
COFFR
10
106.632937
20
47.565748
30
0.0
0
VERTEX
100
AcDbVertex
100
AcDb2dVertex
8
COFFR
10
105.301717
20
47.459659
30
0.0
0
VERTEX
100
AcDbVertex
100
AcDb2dVertex
8
COFFR
10
103.970667
20
47.349076
30
0.0
0
VERTEX
100
AcDbVertex
100
AcDb2dVertex
8
COFFR
10
102.639562
20
47.234164
30
0.0
0
VERTEX
100
AcDbVertex
100
AcDb2dVertex
8
COFFR
10
101.308406
20
47.115085
30
0.0
0
VERTEX
100
AcDbVertex
100
AcDb2dVertex
8
COFFR
10
99.976992
20
46.992635
30
0.0
0
VERTEX
100
AcDbVertex
100
AcDb2dVertex
8
COFFR
10
98.645815
20
46.866087
30
0.0
0
VERTEX
100
AcDbVertex
100
AcDb2dVertex
8
COFFR
10
97.314669
20
46.735341
30
0.0
0
VERTEX
100
AcDbVertex
100
AcDb2dVertex
8
COFFR
10
95.98355
20
46.600312
30
0.0
0
VERTEX
100
AcDbVertex
100
AcDb2dVertex
8
COFFR
10
94.652244
20
46.461578
30
0.0
0
VERTEX
100
AcDbVertex
100
AcDb2dVertex
8
COFFR
10
93.321164
20
46.318446
30
0.0
0
VERTEX
100
AcDbVertex
100
AcDb2dVertex
8
COFFR
10
91.990098
20
46.170867
30
0.0
0
VERTEX
100
AcDbVertex
100
AcDb2dVertex
8
COFFR
10
90.659067
20
46.018733
30
0.0
0
VERTEX
100
AcDbVertex
100
AcDb2dVertex
8
COFFR
10
89.327852
20
45.862614
30
0.0
0
VERTEX
100
AcDbVertex
100
AcDb2dVertex
8
COFFR
10
87.996821
20
45.701942
30
0.0
0
VERTEX
100
AcDbVertex
100
AcDb2dVertex
8
COFFR
10
86.665765
20
45.536792
30
0.0
0
VERTEX
100
AcDbVertex
100
AcDb2dVertex
8
COFFR
10
85.334655
20
45.36733
30
0.0
0
VERTEX
100
AcDbVertex
100
AcDb2dVertex
8
COFFR
10
84.003243
20
45.194488
30
0.0
0
VERTEX
100
AcDbVertex
100
AcDb2dVertex
8
COFFR
10
82.672385
20
45.016564
30
0.0
0
VERTEX
100
AcDbVertex
100
AcDb2dVertex
8
COFFR
10
81.341851
20
44.832551
30
0.0
0
VERTEX
100
AcDbVertex
100
AcDb2dVertex
8
COFFR
10
80.011651
20
44.641411
30
0.0
0
VERTEX
100
AcDbVertex
100
AcDb2dVertex
8
COFFR
10
78.681408
20
44.443273
30
0.0
0
VERTEX
100
AcDbVertex
100
AcDb2dVertex
8
COFFR
10
77.351178
20
44.238096
30
0.0
0
VERTEX
100
AcDbVertex
100
AcDb2dVertex
8
COFFR
10
76.020582
20
44.027007
30
0.0
0
VERTEX
100
AcDbVertex
100
AcDb2dVertex
8
COFFR
10
74.68963
20
43.811109
30
0.0
0
VERTEX
100
AcDbVertex
100
AcDb2dVertex
8
COFFR
10
73.358116
20
43.592141
30
0.0
0
VERTEX
100
AcDbVertex
100
AcDb2dVertex
8
COFFR
10
72.026902
20
43.369193
30
0.0
0
VERTEX
100
AcDbVertex
100
AcDb2dVertex
8
COFFR
10
70.695761
20
43.14203
30
0.0
0
VERTEX
100
AcDbVertex
100
AcDb2dVertex
8
COFFR
10
69.364674
20
42.910486
30
0.0
0
VERTEX
100
AcDbVertex
100
AcDb2dVertex
8
COFFR
10
68.033438
20
42.675018
30
0.0
0
VERTEX
100
AcDbVertex
100
AcDb2dVertex
8
COFFR
10
66.702409
20
42.434995
30
0.0
0
VERTEX
100
AcDbVertex
100
AcDb2dVertex
8
COFFR
10
65.371382
20
42.190402
30
0.0
0
VERTEX
100
AcDbVertex
100
AcDb2dVertex
8
COFFR
10
64.040383
20
41.941154
30
0.0
0
VERTEX
100
AcDbVertex
100
AcDb2dVertex
8
COFFR
10
62.709173
20
41.687901
30
0.0
0
VERTEX
100
AcDbVertex
100
AcDb2dVertex
8
COFFR
10
61.378262
20
41.429728
30
0.0
0
VERTEX
100
AcDbVertex
100
AcDb2dVertex
8
COFFR
10
60.047424
20
41.166401
30
0.0
0
VERTEX
100
AcDbVertex
100
AcDb2dVertex
8
COFFR
10
58.716688
20
40.897606
30
0.0
0
VERTEX
100
AcDbVertex
100
AcDb2dVertex
8
COFFR
10
57.385782
20
40.623863
30
0.0
0
VERTEX
100
AcDbVertex
100
AcDb2dVertex
8
COFFR
10
56.055112
20
40.34445
30
0.0
0
VERTEX
100
AcDbVertex
100
AcDb2dVertex
8
COFFR
10
54.724431
20
40.059395
30
0.0
0
VERTEX
100
AcDbVertex
100
AcDb2dVertex
8
COFFR
10
53.393745
20
39.768715
30
0.0
0
VERTEX
100
AcDbVertex
100
AcDb2dVertex
8
COFFR
10
52.06275
20
39.473356
30
0.0
0
VERTEX
100
AcDbVertex
100
AcDb2dVertex
8
COFFR
10
50.732378
20
39.171414
30
0.0
0
VERTEX
100
AcDbVertex
100
AcDb2dVertex
8
COFFR
10
49.402374
20
38.861743
30
0.0
0
VERTEX
100
AcDbVertex
100
AcDb2dVertex
8
COFFR
10
48.072747
20
38.543174
30
0.0
0
VERTEX
100
AcDbVertex
100
AcDb2dVertex
8
COFFR
10
46.742991
20
38.216088
30
0.0
0
VERTEX
100
AcDbVertex
100
AcDb2dVertex
8
COFFR
10
45.413824
20
37.878684
30
0.0
0
VERTEX
100
AcDbVertex
100
AcDb2dVertex
8
COFFR
10
44.084806
20
37.530485
30
0.0
0
VERTEX
100
AcDbVertex
100
AcDb2dVertex
8
COFFR
10
42.755963
20
37.17095
30
0.0
0
VERTEX
100
AcDbVertex
100
AcDb2dVertex
8
COFFR
10
41.426675
20
36.801432
30
0.0
0
VERTEX
100
AcDbVertex
100
AcDb2dVertex
8
COFFR
10
40.098161
20
36.41958
30
0.0
0
VERTEX
100
AcDbVertex
100
AcDb2dVertex
8
COFFR
10
38.769863
20
36.024702
30
0.0
0
VERTEX
100
AcDbVertex
100
AcDb2dVertex
8
COFFR
10
37.441749
20
35.616224
30
0.0
0
VERTEX
100
AcDbVertex
100
AcDb2dVertex
8
COFFR
10
36.113057
20
35.195907
30
0.0
0
VERTEX
100
AcDbVertex
100
AcDb2dVertex
8
COFFR
10
34.785455
20
34.760441
30
0.0
0
VERTEX
100
AcDbVertex
100
AcDb2dVertex
8
COFFR
10
33.458245
20
34.308579
30
0.0
0
VERTEX
100
AcDbVertex
100
AcDb2dVertex
8
COFFR
10
32.131486
20
33.838925
30
0.0
0
VERTEX
100
AcDbVertex
100
AcDb2dVertex
8
COFFR
10
30.804269
20
33.352855
30
0.0
0
VERTEX
100
AcDbVertex
100
AcDb2dVertex
8
COFFR
10
29.477593
20
32.848739
30
0.0
0
VERTEX
100
AcDbVertex
100
AcDb2dVertex
8
COFFR
10
28.150604
20
32.327503
30
0.0
0
VERTEX
100
AcDbVertex
100
AcDb2dVertex
8
COFFR
10
26.823071
20
31.790818
30
0.0
0
VERTEX
100
AcDbVertex
100
AcDb2dVertex
8
COFFR
10
25.495557
20
31.238656
30
0.0
0
VERTEX
100
AcDbVertex
100
AcDb2dVertex
8
COFFR
10
24.168332
20
30.670132
30
0.0
0
VERTEX
100
AcDbVertex
100
AcDb2dVertex
8
COFFR
10
22.841999
20
30.082514
30
0.0
0
VERTEX
100
AcDbVertex
100
AcDb2dVertex
8
COFFR
10
21.515702
20
29.475635
30
0.0
0
VERTEX
100
AcDbVertex
100
AcDb2dVertex
8
COFFR
10
20.190482
20
28.846218
30
0.0
0
SEQEND
0
POLYLINE
5
 503
100
AcDbEntity
8
COFFR
66
 1
100
AcDb2dPolyline
70
 0
0
VERTEX
100
AcDbVertex
100
AcDb2dVertex
8
COFFR
10
509.020207
20
3.205898
30
0.0
0
VERTEX
100
AcDbVertex
100
AcDb2dVertex
8
COFFR
10
507.687011
20
3.191912
30
0.0
0
VERTEX
100
AcDbVertex
100
AcDb2dVertex
8
COFFR
10
506.353896
20
3.179831
30
0.0
0
VERTEX
100
AcDbVertex
100
AcDb2dVertex
8
COFFR
10
505.020759
20
3.169726
30
0.0
0
VERTEX
100
AcDbVertex
100
AcDb2dVertex
8
COFFR
10
503.687698
20
3.161361
30
0.0
0
VERTEX
100
AcDbVertex
100
AcDb2dVertex
8
COFFR
10
502.354616
20
3.1548
30
0.0
0
VERTEX
100
AcDbVertex
100
AcDb2dVertex
8
COFFR
10
501.021604
20
3.149826
30
0.0
0
VERTEX
100
AcDbVertex
100
AcDb2dVertex
8
COFFR
10
499.688575
20
3.146492
30
0.0
0
VERTEX
100
AcDbVertex
100
AcDb2dVertex
8
COFFR
10
498.355611
20
3.144598
30
0.0
0
VERTEX
100
AcDbVertex
100
AcDb2dVertex
8
COFFR
10
497.022632
20
3.144189
30
0.0
0
VERTEX
100
AcDbVertex
100
AcDb2dVertex
8
COFFR
10
495.690288
20
3.145083
30
0.0
0
VERTEX
100
AcDbVertex
100
AcDb2dVertex
8
COFFR
10
494.358242
20
3.147383
30
0.0
0
VERTEX
100
AcDbVertex
100
AcDb2dVertex
8
COFFR
10
493.026109
20
3.150822
30
0.0
0
VERTEX
100
AcDbVertex
100
AcDb2dVertex
8
COFFR
10
491.693977
20
3.155401
30
0.0
0
VERTEX
100
AcDbVertex
100
AcDb2dVertex
8
COFFR
10
490.361795
20
3.160966
30
0.0
0
VERTEX
100
AcDbVertex
100
AcDb2dVertex
8
COFFR
10
489.029541
20
3.167295
30
0.0
0
VERTEX
100
AcDbVertex
100
AcDb2dVertex
8
COFFR
10
487.697382
20
3.174683
30
0.0
0
VERTEX
100
AcDbVertex
100
AcDb2dVertex
8
COFFR
10
486.365296
20
3.183351
30
0.0
0
VERTEX
100
AcDbVertex
100
AcDb2dVertex
8
COFFR
10
485.033214
20
3.193318
30
0.0
0
VERTEX
100
AcDbVertex
100
AcDb2dVertex
8
COFFR
10
483.701291
20
3.205071
30
0.0
0
VERTEX
100
AcDbVertex
100
AcDb2dVertex
8
COFFR
10
482.369198
20
3.218088
30
0.0
0
VERTEX
100
AcDbVertex
100
AcDb2dVertex
8
COFFR
10
481.037082
20
3.232296
30
0.0
0
VERTEX
100
AcDbVertex
100
AcDb2dVertex
8
COFFR
10
479.704876
20
3.247416
30
0.0
0
VERTEX
100
AcDbVertex
100
AcDb2dVertex
8
COFFR
10
478.372617
20
3.263281
30
0.0
0
VERTEX
100
AcDbVertex
100
AcDb2dVertex
8
COFFR
10
477.040275
20
3.279639
30
0.0
0
VERTEX
100
AcDbVertex
100
AcDb2dVertex
8
COFFR
10
475.707875
20
3.296307
30
0.0
0
VERTEX
100
AcDbVertex
100
AcDb2dVertex
8
COFFR
10
474.375409
20
3.31308
30
0.0
0
VERTEX
100
AcDbVertex
100
AcDb2dVertex
8
COFFR
10
473.042832
20
3.329616
30
0.0
0
VERTEX
100
AcDbVertex
100
AcDb2dVertex
8
COFFR
10
471.710308
20
3.346076
30
0.0
0
VERTEX
100
AcDbVertex
100
AcDb2dVertex
8
COFFR
10
470.377783
20
3.362458
30
0.0
0
VERTEX
100
AcDbVertex
100
AcDb2dVertex
8
COFFR
10
469.04527
20
3.378799
30
0.0
0
VERTEX
100
AcDbVertex
100
AcDb2dVertex
8
COFFR
10
467.712794
20
3.395216
30
0.0
0
VERTEX
100
AcDbVertex
100
AcDb2dVertex
8
COFFR
10
466.380294
20
3.411632
30
0.0
0
VERTEX
100
AcDbVertex
100
AcDb2dVertex
8
COFFR
10
465.047794
20
3.428047
30
0.0
0
VERTEX
100
AcDbVertex
100
AcDb2dVertex
8
COFFR
10
463.715295
20
3.444465
30
0.0
0
VERTEX
100
AcDbVertex
100
AcDb2dVertex
8
COFFR
10
462.382797
20
3.46089
30
0.0
0
VERTEX
100
AcDbVertex
100
AcDb2dVertex
8
COFFR
10
461.050298
20
3.477319
30
0.0
0
VERTEX
100
AcDbVertex
100
AcDb2dVertex
8
COFFR
10
459.717799
20
3.49375
30
0.0
0
VERTEX
100
AcDbVertex
100
AcDb2dVertex
8
COFFR
10
458.3853
20
3.510184
30
0.0
0
VERTEX
100
AcDbVertex
100
AcDb2dVertex
8
COFFR
10
457.052798
20
3.526613
30
0.0
0
VERTEX
100
AcDbVertex
100
AcDb2dVertex
8
COFFR
10
455.720298
20
3.543043
30
0.0
0
VERTEX
100
AcDbVertex
100
AcDb2dVertex
8
COFFR
10
454.387798
20
3.559472
30
0.0
0
VERTEX
100
AcDbVertex
100
AcDb2dVertex
8
COFFR
10
453.055299
20
3.575903
30
0.0
0
VERTEX
100
AcDbVertex
100
AcDb2dVertex
8
COFFR
10
451.722799
20
3.592335
30
0.0
0
VERTEX
100
AcDbVertex
100
AcDb2dVertex
8
COFFR
10
450.390299
20
3.608767
30
0.0
0
VERTEX
100
AcDbVertex
100
AcDb2dVertex
8
COFFR
10
449.057798
20
3.625195
30
0.0
0
VERTEX
100
AcDbVertex
100
AcDb2dVertex
8
COFFR
10
447.725297
20
3.641622
30
0.0
0
VERTEX
100
AcDbVertex
100
AcDb2dVertex
8
COFFR
10
446.392793
20
3.658035
30
0.0
0
VERTEX
100
AcDbVertex
100
AcDb2dVertex
8
COFFR
10
445.060293
20
3.674449
30
0.0
0
VERTEX
100
AcDbVertex
100
AcDb2dVertex
8
COFFR
10
443.727794
20
3.690865
30
0.0
0
VERTEX
100
AcDbVertex
100
AcDb2dVertex
8
COFFR
10
442.395296
20
3.707287
30
0.0
0
VERTEX
100
AcDbVertex
100
AcDb2dVertex
8
COFFR
10
441.062801
20
3.723724
30
0.0
0
VERTEX
100
AcDbVertex
100
AcDb2dVertex
8
COFFR
10
439.730303
20
3.740168
30
0.0
0
VERTEX
100
AcDbVertex
100
AcDb2dVertex
8
COFFR
10
438.397803
20
3.756614
30
0.0
0
VERTEX
100
AcDbVertex
100
AcDb2dVertex
8
COFFR
10
437.065304
20
3.773059
30
0.0
0
VERTEX
100
AcDbVertex
100
AcDb2dVertex
8
COFFR
10
435.732808
20
3.789518
30
0.0
0
VERTEX
100
AcDbVertex
100
AcDb2dVertex
8
COFFR
10
434.400303
20
3.805962
30
0.0
0
VERTEX
100
AcDbVertex
100
AcDb2dVertex
8
COFFR
10
433.067795
20
3.822381
30
0.0
0
VERTEX
100
AcDbVertex
100
AcDb2dVertex
8
COFFR
10
431.735288
20
3.838778
30
0.0
0
VERTEX
100
AcDbVertex
100
AcDb2dVertex
8
COFFR
10
430.402742
20
3.855034
30
0.0
0
VERTEX
100
AcDbVertex
100
AcDb2dVertex
8
COFFR
10
429.070263
20
3.871353
30
0.0
0
VERTEX
100
AcDbVertex
100
AcDb2dVertex
8
COFFR
10
427.737811
20
3.887822
30
0.0
0
VERTEX
100
AcDbVertex
100
AcDb2dVertex
8
COFFR
10
426.405377
20
3.904497
30
0.0
0
VERTEX
100
AcDbVertex
100
AcDb2dVertex
8
COFFR
10
425.073033
20
3.921654
30
0.0
0
VERTEX
100
AcDbVertex
100
AcDb2dVertex
8
COFFR
10
423.74058
20
3.938958
30
0.0
0
VERTEX
100
AcDbVertex
100
AcDb2dVertex
8
COFFR
10
422.408089
20
3.956289
30
0.0
0
VERTEX
100
AcDbVertex
100
AcDb2dVertex
8
COFFR
10
421.075557
20
3.97352
30
0.0
0
VERTEX
100
AcDbVertex
100
AcDb2dVertex
8
COFFR
10
419.742926
20
3.990346
30
0.0
0
VERTEX
100
AcDbVertex
100
AcDb2dVertex
8
COFFR
10
418.410347
20
4.006927
30
0.0
0
VERTEX
100
AcDbVertex
100
AcDb2dVertex
8
COFFR
10
417.077759
20
4.023234
30
0.0
0
VERTEX
100
AcDbVertex
100
AcDb2dVertex
8
COFFR
10
415.745179
20
4.039293
30
0.0
0
VERTEX
100
AcDbVertex
100
AcDb2dVertex
8
COFFR
10
414.412609
20
4.055134
30
0.0
0
VERTEX
100
AcDbVertex
100
AcDb2dVertex
8
COFFR
10
413.08003
20
4.070732
30
0.0
0
VERTEX
100
AcDbVertex
100
AcDb2dVertex
8
COFFR
10
411.747442
20
4.086055
30
0.0
0
VERTEX
100
AcDbVertex
100
AcDb2dVertex
8
COFFR
10
410.414859
20
4.101122
30
0.0
0
VERTEX
100
AcDbVertex
100
AcDb2dVertex
8
COFFR
10
409.082267
20
4.115903
30
0.0
0
VERTEX
100
AcDbVertex
100
AcDb2dVertex
8
COFFR
10
407.749679
20
4.130411
30
0.0
0
VERTEX
100
AcDbVertex
100
AcDb2dVertex
8
COFFR
10
406.41708
20
4.144613
30
0.0
0
VERTEX
100
AcDbVertex
100
AcDb2dVertex
8
COFFR
10
405.084487
20
4.158526
30
0.0
0
VERTEX
100
AcDbVertex
100
AcDb2dVertex
8
COFFR
10
403.751881
20
4.172112
30
0.0
0
VERTEX
100
AcDbVertex
100
AcDb2dVertex
8
COFFR
10
402.419284
20
4.185395
30
0.0
0
VERTEX
100
AcDbVertex
100
AcDb2dVertex
8
COFFR
10
401.086675
20
4.198342
30
0.0
0
VERTEX
100
AcDbVertex
100
AcDb2dVertex
8
COFFR
10
399.754074
20
4.210974
30
0.0
0
VERTEX
100
AcDbVertex
100
AcDb2dVertex
8
COFFR
10
398.421462
20
4.223259
30
0.0
0
VERTEX
100
AcDbVertex
100
AcDb2dVertex
8
COFFR
10
397.088857
20
4.23522
30
0.0
0
VERTEX
100
AcDbVertex
100
AcDb2dVertex
8
COFFR
10
395.756242
20
4.246823
30
0.0
0
VERTEX
100
AcDbVertex
100
AcDb2dVertex
8
COFFR
10
394.423634
20
4.258091
30
0.0
0
VERTEX
100
AcDbVertex
100
AcDb2dVertex
8
COFFR
10
393.091015
20
4.268992
30
0.0
0
VERTEX
100
AcDbVertex
100
AcDb2dVertex
8
COFFR
10
391.758405
20
4.27955
30
0.0
0
VERTEX
100
AcDbVertex
100
AcDb2dVertex
8
COFFR
10
390.425783
20
4.28973
30
0.0
0
VERTEX
100
AcDbVertex
100
AcDb2dVertex
8
COFFR
10
389.09317
20
4.299559
30
0.0
0
VERTEX
100
AcDbVertex
100
AcDb2dVertex
8
COFFR
10
387.760545
20
4.309002
30
0.0
0
VERTEX
100
AcDbVertex
100
AcDb2dVertex
8
COFFR
10
386.42793
20
4.318088
30
0.0
0
VERTEX
100
AcDbVertex
100
AcDb2dVertex
8
COFFR
10
385.095303
20
4.326781
30
0.0
0
VERTEX
100
AcDbVertex
100
AcDb2dVertex
8
COFFR
10
383.762686
20
4.335111
30
0.0
0
VERTEX
100
AcDbVertex
100
AcDb2dVertex
8
COFFR
10
382.430048
20
4.343011
30
0.0
0
VERTEX
100
AcDbVertex
100
AcDb2dVertex
8
COFFR
10
381.097435
20
4.350561
30
0.0
0
VERTEX
100
AcDbVertex
100
AcDb2dVertex
8
COFFR
10
379.764816
20
4.357742
30
0.0
0
VERTEX
100
AcDbVertex
100
AcDb2dVertex
8
COFFR
10
378.432207
20
4.364586
30
0.0
0
VERTEX
100
AcDbVertex
100
AcDb2dVertex
8
COFFR
10
377.099628
20
4.371186
30
0.0
0
VERTEX
100
AcDbVertex
100
AcDb2dVertex
8
COFFR
10
375.76699
20
4.377357
30
0.0
0
VERTEX
100
AcDbVertex
100
AcDb2dVertex
8
COFFR
10
374.43431
20
4.382969
30
0.0
0
VERTEX
100
AcDbVertex
100
AcDb2dVertex
8
COFFR
10
373.101618
20
4.387985
30
0.0
0
VERTEX
100
AcDbVertex
100
AcDb2dVertex
8
COFFR
10
371.768827
20
4.392099
30
0.0
0
VERTEX
100
AcDbVertex
100
AcDb2dVertex
8
COFFR
10
370.436136
20
4.395622
30
0.0
0
VERTEX
100
AcDbVertex
100
AcDb2dVertex
8
COFFR
10
369.103458
20
4.398594
30
0.0
0
VERTEX
100
AcDbVertex
100
AcDb2dVertex
8
COFFR
10
367.770824
20
4.40115
30
0.0
0
VERTEX
100
AcDbVertex
100
AcDb2dVertex
8
COFFR
10
366.43825
20
4.403477
30
0.0
0
VERTEX
100
AcDbVertex
100
AcDb2dVertex
8
COFFR
10
365.10565
20
4.405493
30
0.0
0
VERTEX
100
AcDbVertex
100
AcDb2dVertex
8
COFFR
10
363.773044
20
4.407179
30
0.0
0
VERTEX
100
AcDbVertex
100
AcDb2dVertex
8
COFFR
10
362.440445
20
4.408559
30
0.0
0
VERTEX
100
AcDbVertex
100
AcDb2dVertex
8
COFFR
10
361.107827
20
4.409575
30
0.0
0
VERTEX
100
AcDbVertex
100
AcDb2dVertex
8
COFFR
10
359.775228
20
4.410283
30
0.0
0
VERTEX
100
AcDbVertex
100
AcDb2dVertex
8
COFFR
10
358.442622
20
4.410662
30
0.0
0
VERTEX
100
AcDbVertex
100
AcDb2dVertex
8
COFFR
10
357.110026
20
4.410744
30
0.0
0
VERTEX
100
AcDbVertex
100
AcDb2dVertex
8
COFFR
10
355.777578
20
4.410504
30
0.0
0
VERTEX
100
AcDbVertex
100
AcDb2dVertex
8
COFFR
10
354.445169
20
4.40998
30
0.0
0
VERTEX
100
AcDbVertex
100
AcDb2dVertex
8
COFFR
10
353.112764
20
4.409161
30
0.0
0
VERTEX
100
AcDbVertex
100
AcDb2dVertex
8
COFFR
10
351.780349
20
4.408079
30
0.0
0
VERTEX
100
AcDbVertex
100
AcDb2dVertex
8
COFFR
10
350.447935
20
4.406729
30
0.0
0
VERTEX
100
AcDbVertex
100
AcDb2dVertex
8
COFFR
10
349.115514
20
4.405134
30
0.0
0
VERTEX
100
AcDbVertex
100
AcDb2dVertex
8
COFFR
10
347.783097
20
4.403284
30
0.0
0
VERTEX
100
AcDbVertex
100
AcDb2dVertex
8
COFFR
10
346.450671
20
4.401204
30
0.0
0
VERTEX
100
AcDbVertex
100
AcDb2dVertex
8
COFFR
10
345.118249
20
4.398881
30
0.0
0
VERTEX
100
AcDbVertex
100
AcDb2dVertex
8
COFFR
10
343.785817
20
4.396347
30
0.0
0
VERTEX
100
AcDbVertex
100
AcDb2dVertex
8
COFFR
10
342.453388
20
4.393594
30
0.0
0
VERTEX
100
AcDbVertex
100
AcDb2dVertex
8
COFFR
10
341.120949
20
4.39065
30
0.0
0
VERTEX
100
AcDbVertex
100
AcDb2dVertex
8
COFFR
10
339.788512
20
4.387512
30
0.0
0
VERTEX
100
AcDbVertex
100
AcDb2dVertex
8
COFFR
10
338.456068
20
4.384201
30
0.0
0
VERTEX
100
AcDbVertex
100
AcDb2dVertex
8
COFFR
10
337.123626
20
4.380709
30
0.0
0
VERTEX
100
AcDbVertex
100
AcDb2dVertex
8
COFFR
10
335.791177
20
4.377058
30
0.0
0
VERTEX
100
AcDbVertex
100
AcDb2dVertex
8
COFFR
10
334.458731
20
4.373242
30
0.0
0
VERTEX
100
AcDbVertex
100
AcDb2dVertex
8
COFFR
10
333.126276
20
4.369283
30
0.0
0
VERTEX
100
AcDbVertex
100
AcDb2dVertex
8
COFFR
10
331.793822
20
4.365183
30
0.0
0
VERTEX
100
AcDbVertex
100
AcDb2dVertex
8
COFFR
10
330.461361
20
4.360962
30
0.0
0
VERTEX
100
AcDbVertex
100
AcDb2dVertex
8
COFFR
10
329.128884
20
4.356669
30
0.0
0
VERTEX
100
AcDbVertex
100
AcDb2dVertex
8
COFFR
10
327.796425
20
4.352252
30
0.0
0
VERTEX
100
AcDbVertex
100
AcDb2dVertex
8
COFFR
10
326.463971
20
4.347691
30
0.0
0
VERTEX
100
AcDbVertex
100
AcDb2dVertex
8
COFFR
10
325.131513
20
4.343
30
0.0
0
VERTEX
100
AcDbVertex
100
AcDb2dVertex
8
COFFR
10
323.799113
20
4.337998
30
0.0
0
VERTEX
100
AcDbVertex
100
AcDb2dVertex
8
COFFR
10
322.466605
20
4.33302
30
0.0
0
VERTEX
100
AcDbVertex
100
AcDb2dVertex
8
COFFR
10
321.134048
20
4.328219
30
0.0
0
VERTEX
100
AcDbVertex
100
AcDb2dVertex
8
COFFR
10
319.801456
20
4.323705
30
0.0
0
VERTEX
100
AcDbVertex
100
AcDb2dVertex
8
COFFR
10
318.468728
20
4.319896
30
0.0
0
VERTEX
100
AcDbVertex
100
AcDb2dVertex
8
COFFR
10
317.136133
20
4.316384
30
0.0
0
VERTEX
100
AcDbVertex
100
AcDb2dVertex
8
COFFR
10
315.80357
20
4.313065
30
0.0
0
VERTEX
100
AcDbVertex
100
AcDb2dVertex
8
COFFR
10
314.471055
20
4.309794
30
0.0
0
VERTEX
100
AcDbVertex
100
AcDb2dVertex
8
COFFR
10
313.138643
20
4.306249
30
0.0
0
VERTEX
100
AcDbVertex
100
AcDb2dVertex
8
COFFR
10
311.806172
20
4.302614
30
0.0
0
VERTEX
100
AcDbVertex
100
AcDb2dVertex
8
COFFR
10
310.473703
20
4.298885
30
0.0
0
VERTEX
100
AcDbVertex
100
AcDb2dVertex
8
COFFR
10
309.141226
20
4.295083
30
0.0
0
VERTEX
100
AcDbVertex
100
AcDb2dVertex
8
COFFR
10
307.80873
20
4.29127
30
0.0
0
VERTEX
100
AcDbVertex
100
AcDb2dVertex
8
COFFR
10
306.476246
20
4.287406
30
0.0
0
VERTEX
100
AcDbVertex
100
AcDb2dVertex
8
COFFR
10
305.143764
20
4.283488
30
0.0
0
VERTEX
100
AcDbVertex
100
AcDb2dVertex
8
COFFR
10
303.81128
20
4.279519
30
0.0
0
VERTEX
100
AcDbVertex
100
AcDb2dVertex
8
COFFR
10
302.478796
20
4.275502
30
0.0
0
VERTEX
100
AcDbVertex
100
AcDb2dVertex
8
COFFR
10
301.146313
20
4.271431
30
0.0
0
VERTEX
100
AcDbVertex
100
AcDb2dVertex
8
COFFR
10
299.813833
20
4.267297
30
0.0
0
VERTEX
100
AcDbVertex
100
AcDb2dVertex
8
COFFR
10
298.481353
20
4.263103
30
0.0
0
VERTEX
100
AcDbVertex
100
AcDb2dVertex
8
COFFR
10
297.148877
20
4.258834
30
0.0
0
VERTEX
100
AcDbVertex
100
AcDb2dVertex
8
COFFR
10
295.816398
20
4.254499
30
0.0
0
VERTEX
100
AcDbVertex
100
AcDb2dVertex
8
COFFR
10
294.483921
20
4.250093
30
0.0
0
VERTEX
100
AcDbVertex
100
AcDb2dVertex
8
COFFR
10
293.151442
20
4.24562
30
0.0
0
VERTEX
100
AcDbVertex
100
AcDb2dVertex
8
COFFR
10
291.818965
20
4.241079
30
0.0
0
VERTEX
100
AcDbVertex
100
AcDb2dVertex
8
COFFR
10
290.486487
20
4.236468
30
0.0
0
VERTEX
100
AcDbVertex
100
AcDb2dVertex
8
COFFR
10
289.154012
20
4.231781
30
0.0
0
VERTEX
100
AcDbVertex
100
AcDb2dVertex
8
COFFR
10
287.821536
20
4.227019
30
0.0
0
VERTEX
100
AcDbVertex
100
AcDb2dVertex
8
COFFR
10
286.489063
20
4.222173
30
0.0
0
VERTEX
100
AcDbVertex
100
AcDb2dVertex
8
COFFR
10
285.156588
20
4.217248
30
0.0
0
VERTEX
100
AcDbVertex
100
AcDb2dVertex
8
COFFR
10
283.824117
20
4.212235
30
0.0
0
VERTEX
100
AcDbVertex
100
AcDb2dVertex
8
COFFR
10
282.491644
20
4.207138
30
0.0
0
VERTEX
100
AcDbVertex
100
AcDb2dVertex
8
COFFR
10
281.159174
20
4.201947
30
0.0
0
VERTEX
100
AcDbVertex
100
AcDb2dVertex
8
COFFR
10
279.826703
20
4.196668
30
0.0
0
VERTEX
100
AcDbVertex
100
AcDb2dVertex
8
COFFR
10
278.494234
20
4.19129
30
0.0
0
VERTEX
100
AcDbVertex
100
AcDb2dVertex
8
COFFR
10
277.161765
20
4.185818
30
0.0
0
VERTEX
100
AcDbVertex
100
AcDb2dVertex
8
COFFR
10
275.829302
20
4.18023
30
0.0
0
VERTEX
100
AcDbVertex
100
AcDb2dVertex
8
COFFR
10
274.496832
20
4.174549
30
0.0
0
VERTEX
100
AcDbVertex
100
AcDb2dVertex
8
COFFR
10
273.164364
20
4.16877
30
0.0
0
VERTEX
100
AcDbVertex
100
AcDb2dVertex
8
COFFR
10
271.831894
20
4.162899
30
0.0
0
VERTEX
100
AcDbVertex
100
AcDb2dVertex
8
COFFR
10
270.499412
20
4.156971
30
0.0
0
VERTEX
100
AcDbVertex
100
AcDb2dVertex
8
COFFR
10
269.166955
20
4.150909
30
0.0
0
VERTEX
100
AcDbVertex
100
AcDb2dVertex
8
COFFR
10
267.834513
20
4.144666
30
0.0
0
VERTEX
100
AcDbVertex
100
AcDb2dVertex
8
COFFR
10
266.502079
20
4.13822
30
0.0
0
VERTEX
100
AcDbVertex
100
AcDb2dVertex
8
COFFR
10
265.169681
20
4.131456
30
0.0
0
VERTEX
100
AcDbVertex
100
AcDb2dVertex
8
COFFR
10
263.837248
20
4.124487
30
0.0
0
VERTEX
100
AcDbVertex
100
AcDb2dVertex
8
COFFR
10
262.504809
20
4.117328
30
0.0
0
VERTEX
100
AcDbVertex
100
AcDb2dVertex
8
COFFR
10
261.172355
20
4.110024
30
0.0
0
VERTEX
100
AcDbVertex
100
AcDb2dVertex
8
COFFR
10
259.839879
20
4.102649
30
0.0
0
VERTEX
100
AcDbVertex
100
AcDb2dVertex
8
COFFR
10
258.507413
20
4.095165
30
0.0
0
VERTEX
100
AcDbVertex
100
AcDb2dVertex
8
COFFR
10
257.174951
20
4.087566
30
0.0
0
VERTEX
100
AcDbVertex
100
AcDb2dVertex
8
COFFR
10
255.842486
20
4.079857
30
0.0
0
VERTEX
100
AcDbVertex
100
AcDb2dVertex
8
COFFR
10
254.510029
20
4.072015
30
0.0
0
VERTEX
100
AcDbVertex
100
AcDb2dVertex
8
COFFR
10
253.177566
20
4.064057
30
0.0
0
VERTEX
100
AcDbVertex
100
AcDb2dVertex
8
COFFR
10
251.845107
20
4.055972
30
0.0
0
VERTEX
100
AcDbVertex
100
AcDb2dVertex
8
COFFR
10
250.512645
20
4.04777
30
0.0
0
VERTEX
100
AcDbVertex
100
AcDb2dVertex
8
COFFR
10
249.180187
20
4.039436
30
0.0
0
VERTEX
100
AcDbVertex
100
AcDb2dVertex
8
COFFR
10
247.847726
20
4.030984
30
0.0
0
VERTEX
100
AcDbVertex
100
AcDb2dVertex
8
COFFR
10
246.515266
20
4.022406
30
0.0
0
VERTEX
100
AcDbVertex
100
AcDb2dVertex
8
COFFR
10
245.182804
20
4.013711
30
0.0
0
VERTEX
100
AcDbVertex
100
AcDb2dVertex
8
COFFR
10
243.850343
20
4.004895
30
0.0
0
VERTEX
100
AcDbVertex
100
AcDb2dVertex
8
COFFR
10
242.51788
20
3.995963
30
0.0
0
VERTEX
100
AcDbVertex
100
AcDb2dVertex
8
COFFR
10
241.185421
20
3.986906
30
0.0
0
VERTEX
100
AcDbVertex
100
AcDb2dVertex
8
COFFR
10
239.852958
20
3.977733
30
0.0
0
VERTEX
100
AcDbVertex
100
AcDb2dVertex
8
COFFR
10
238.520499
20
3.968434
30
0.0
0
VERTEX
100
AcDbVertex
100
AcDb2dVertex
8
COFFR
10
237.188036
20
3.959019
30
0.0
0
VERTEX
100
AcDbVertex
100
AcDb2dVertex
8
COFFR
10
235.855575
20
3.949483
30
0.0
0
VERTEX
100
AcDbVertex
100
AcDb2dVertex
8
COFFR
10
234.523111
20
3.939837
30
0.0
0
VERTEX
100
AcDbVertex
100
AcDb2dVertex
8
COFFR
10
233.190648
20
3.930075
30
0.0
0
VERTEX
100
AcDbVertex
100
AcDb2dVertex
8
COFFR
10
231.858183
20
3.920205
30
0.0
0
VERTEX
100
AcDbVertex
100
AcDb2dVertex
8
COFFR
10
230.52572
20
3.91022
30
0.0
0
VERTEX
100
AcDbVertex
100
AcDb2dVertex
8
COFFR
10
229.193255
20
3.900128
30
0.0
0
VERTEX
100
AcDbVertex
100
AcDb2dVertex
8
COFFR
10
227.860791
20
3.889924
30
0.0
0
VERTEX
100
AcDbVertex
100
AcDb2dVertex
8
COFFR
10
226.528325
20
3.879613
30
0.0
0
VERTEX
100
AcDbVertex
100
AcDb2dVertex
8
COFFR
10
225.195862
20
3.869189
30
0.0
0
VERTEX
100
AcDbVertex
100
AcDb2dVertex
8
COFFR
10
223.863395
20
3.858661
30
0.0
0
VERTEX
100
AcDbVertex
100
AcDb2dVertex
8
COFFR
10
222.530932
20
3.848019
30
0.0
0
VERTEX
100
AcDbVertex
100
AcDb2dVertex
8
COFFR
10
221.198464
20
3.837277
30
0.0
0
VERTEX
100
AcDbVertex
100
AcDb2dVertex
8
COFFR
10
219.865998
20
3.826429
30
0.0
0
VERTEX
100
AcDbVertex
100
AcDb2dVertex
8
COFFR
10
218.533529
20
3.815487
30
0.0
0
VERTEX
100
AcDbVertex
100
AcDb2dVertex
8
COFFR
10
217.20106
20
3.804447
30
0.0
0
VERTEX
100
AcDbVertex
100
AcDb2dVertex
8
COFFR
10
215.868588
20
3.793322
30
0.0
0
VERTEX
100
AcDbVertex
100
AcDb2dVertex
8
COFFR
10
214.536116
20
3.78211
30
0.0
0
VERTEX
100
AcDbVertex
100
AcDb2dVertex
8
COFFR
10
213.20364
20
3.770822
30
0.0
0
VERTEX
100
AcDbVertex
100
AcDb2dVertex
8
COFFR
10
211.871163
20
3.759464
30
0.0
0
VERTEX
100
AcDbVertex
100
AcDb2dVertex
8
COFFR
10
210.538687
20
3.748032
30
0.0
0
VERTEX
100
AcDbVertex
100
AcDb2dVertex
8
COFFR
10
209.206213
20
3.73652
30
0.0
0
VERTEX
100
AcDbVertex
100
AcDb2dVertex
8
COFFR
10
207.873738
20
3.72493
30
0.0
0
VERTEX
100
AcDbVertex
100
AcDb2dVertex
8
COFFR
10
206.541267
20
3.71325
30
0.0
0
VERTEX
100
AcDbVertex
100
AcDb2dVertex
8
COFFR
10
205.208791
20
3.701494
30
0.0
0
VERTEX
100
AcDbVertex
100
AcDb2dVertex
8
COFFR
10
203.876316
20
3.689661
30
0.0
0
VERTEX
100
AcDbVertex
100
AcDb2dVertex
8
COFFR
10
202.543838
20
3.67776
30
0.0
0
VERTEX
100
AcDbVertex
100
AcDb2dVertex
8
COFFR
10
201.211359
20
3.665794
30
0.0
0
VERTEX
100
AcDbVertex
100
AcDb2dVertex
8
COFFR
10
199.878879
20
3.653766
30
0.0
0
VERTEX
100
AcDbVertex
100
AcDb2dVertex
8
COFFR
10
198.5464
20
3.641674
30
0.0
0
VERTEX
100
AcDbVertex
100
AcDb2dVertex
8
COFFR
10
197.213919
20
3.629523
30
0.0
0
VERTEX
100
AcDbVertex
100
AcDb2dVertex
8
COFFR
10
195.881439
20
3.61731
30
0.0
0
VERTEX
100
AcDbVertex
100
AcDb2dVertex
8
COFFR
10
194.548955
20
3.605045
30
0.0
0
VERTEX
100
AcDbVertex
100
AcDb2dVertex
8
COFFR
10
193.216471
20
3.592733
30
0.0
0
VERTEX
100
AcDbVertex
100
AcDb2dVertex
8
COFFR
10
191.883984
20
3.58038
30
0.0
0
VERTEX
100
AcDbVertex
100
AcDb2dVertex
8
COFFR
10
190.551494
20
3.567997
30
0.0
0
VERTEX
100
AcDbVertex
100
AcDb2dVertex
8
COFFR
10
189.219004
20
3.55558
30
0.0
0
VERTEX
100
AcDbVertex
100
AcDb2dVertex
8
COFFR
10
187.886515
20
3.543131
30
0.0
0
VERTEX
100
AcDbVertex
100
AcDb2dVertex
8
COFFR
10
186.554024
20
3.530651
30
0.0
0
VERTEX
100
AcDbVertex
100
AcDb2dVertex
8
COFFR
10
185.221535
20
3.51814
30
0.0
0
VERTEX
100
AcDbVertex
100
AcDb2dVertex
8
COFFR
10
183.889042
20
3.505606
30
0.0
0
VERTEX
100
AcDbVertex
100
AcDb2dVertex
8
COFFR
10
182.556547
20
3.493056
30
0.0
0
VERTEX
100
AcDbVertex
100
AcDb2dVertex
8
COFFR
10
181.22405
20
3.480496
30
0.0
0
VERTEX
100
AcDbVertex
100
AcDb2dVertex
8
COFFR
10
179.89155
20
3.467937
30
0.0
0
VERTEX
100
AcDbVertex
100
AcDb2dVertex
8
COFFR
10
178.55905
20
3.455379
30
0.0
0
VERTEX
100
AcDbVertex
100
AcDb2dVertex
8
COFFR
10
177.226547
20
3.442828
30
0.0
0
VERTEX
100
AcDbVertex
100
AcDb2dVertex
8
COFFR
10
175.894044
20
3.430287
30
0.0
0
VERTEX
100
AcDbVertex
100
AcDb2dVertex
8
COFFR
10
174.561539
20
3.417764
30
0.0
0
VERTEX
100
AcDbVertex
100
AcDb2dVertex
8
COFFR
10
173.229032
20
3.405261
30
0.0
0
VERTEX
100
AcDbVertex
100
AcDb2dVertex
8
COFFR
10
171.896523
20
3.392787
30
0.0
0
VERTEX
100
AcDbVertex
100
AcDb2dVertex
8
COFFR
10
170.564012
20
3.380345
30
0.0
0
VERTEX
100
AcDbVertex
100
AcDb2dVertex
8
COFFR
10
169.231487
20
3.367983
30
0.0
0
VERTEX
100
AcDbVertex
100
AcDb2dVertex
8
COFFR
10
167.898978
20
3.355646
30
0.0
0
VERTEX
100
AcDbVertex
100
AcDb2dVertex
8
COFFR
10
166.566471
20
3.343333
30
0.0
0
VERTEX
100
AcDbVertex
100
AcDb2dVertex
8
COFFR
10
165.233964
20
3.331043
30
0.0
0
VERTEX
100
AcDbVertex
100
AcDb2dVertex
8
COFFR
10
163.901496
20
3.318651
30
0.0
0
VERTEX
100
AcDbVertex
100
AcDb2dVertex
8
COFFR
10
162.568952
20
3.306397
30
0.0
0
VERTEX
100
AcDbVertex
100
AcDb2dVertex
8
COFFR
10
161.236367
20
3.294407
30
0.0
0
VERTEX
100
AcDbVertex
100
AcDb2dVertex
8
COFFR
10
159.903758
20
3.282754
30
0.0
0
VERTEX
100
AcDbVertex
100
AcDb2dVertex
8
COFFR
10
158.571043
20
3.271766
30
0.0
0
VERTEX
100
AcDbVertex
100
AcDb2dVertex
8
COFFR
10
157.238433
20
3.261122
30
0.0
0
VERTEX
100
AcDbVertex
100
AcDb2dVertex
8
COFFR
10
155.905844
20
3.250753
30
0.0
0
VERTEX
100
AcDbVertex
100
AcDb2dVertex
8
COFFR
10
154.573293
20
3.240541
30
0.0
0
VERTEX
100
AcDbVertex
100
AcDb2dVertex
8
COFFR
10
153.240819
20
3.230249
30
0.0
0
VERTEX
100
AcDbVertex
100
AcDb2dVertex
8
COFFR
10
151.908301
20
3.220014
30
0.0
0
VERTEX
100
AcDbVertex
100
AcDb2dVertex
8
COFFR
10
150.575778
20
3.20985
30
0.0
0
VERTEX
100
AcDbVertex
100
AcDb2dVertex
8
COFFR
10
149.243252
20
3.199766
30
0.0
0
VERTEX
100
AcDbVertex
100
AcDb2dVertex
8
COFFR
10
147.910703
20
3.189833
30
0.0
0
VERTEX
100
AcDbVertex
100
AcDb2dVertex
8
COFFR
10
146.57817
20
3.180005
30
0.0
0
VERTEX
100
AcDbVertex
100
AcDb2dVertex
8
COFFR
10
145.245631
20
3.170295
30
0.0
0
VERTEX
100
AcDbVertex
100
AcDb2dVertex
8
COFFR
10
143.913095
20
3.160697
30
0.0
0
VERTEX
100
AcDbVertex
100
AcDb2dVertex
8
COFFR
10
142.580555
20
3.151225
30
0.0
0
VERTEX
100
AcDbVertex
100
AcDb2dVertex
8
COFFR
10
141.248015
20
3.141876
30
0.0
0
VERTEX
100
AcDbVertex
100
AcDb2dVertex
8
COFFR
10
139.915469
20
3.132669
30
0.0
0
VERTEX
100
AcDbVertex
100
AcDb2dVertex
8
COFFR
10
138.582925
20
3.123601
30
0.0
0
VERTEX
100
AcDbVertex
100
AcDb2dVertex
8
COFFR
10
137.250372
20
3.114696
30
0.0
0
VERTEX
100
AcDbVertex
100
AcDb2dVertex
8
COFFR
10
135.917823
20
3.105943
30
0.0
0
VERTEX
100
AcDbVertex
100
AcDb2dVertex
8
COFFR
10
134.585266
20
3.097366
30
0.0
0
VERTEX
100
AcDbVertex
100
AcDb2dVertex
8
COFFR
10
133.252712
20
3.088956
30
0.0
0
VERTEX
100
AcDbVertex
100
AcDb2dVertex
8
COFFR
10
131.920151
20
3.080735
30
0.0
0
VERTEX
100
AcDbVertex
100
AcDb2dVertex
8
COFFR
10
130.58759
20
3.072703
30
0.0
0
VERTEX
100
AcDbVertex
100
AcDb2dVertex
8
COFFR
10
129.255019
20
3.064892
30
0.0
0
VERTEX
100
AcDbVertex
100
AcDb2dVertex
8
COFFR
10
127.922443
20
3.057317
30
0.0
0
VERTEX
100
AcDbVertex
100
AcDb2dVertex
8
COFFR
10
126.589873
20
3.049958
30
0.0
0
VERTEX
100
AcDbVertex
100
AcDb2dVertex
8
COFFR
10
125.257289
20
3.04286
30
0.0
0
VERTEX
100
AcDbVertex
100
AcDb2dVertex
8
COFFR
10
123.924701
20
3.036035
30
0.0
0
VERTEX
100
AcDbVertex
100
AcDb2dVertex
8
COFFR
10
122.592109
20
3.029496
30
0.0
0
VERTEX
100
AcDbVertex
100
AcDb2dVertex
8
COFFR
10
121.259528
20
3.023206
30
0.0
0
VERTEX
100
AcDbVertex
100
AcDb2dVertex
8
COFFR
10
119.926927
20
3.017232
30
0.0
0
VERTEX
100
AcDbVertex
100
AcDb2dVertex
8
COFFR
10
118.594318
20
3.011595
30
0.0
0
VERTEX
100
AcDbVertex
100
AcDb2dVertex
8
COFFR
10
117.261697
20
3.006331
30
0.0
0
VERTEX
100
AcDbVertex
100
AcDb2dVertex
8
COFFR
10
115.929083
20
3.001423
30
0.0
0
VERTEX
100
AcDbVertex
100
AcDb2dVertex
8
COFFR
10
114.596458
20
2.996902
30
0.0
0
VERTEX
100
AcDbVertex
100
AcDb2dVertex
8
COFFR
10
113.263838
20
2.992755
30
0.0
0
VERTEX
100
AcDbVertex
100
AcDb2dVertex
8
COFFR
10
111.931229
20
2.988945
30
0.0
0
VERTEX
100
AcDbVertex
100
AcDb2dVertex
8
COFFR
10
110.598657
20
2.985356
30
0.0
0
VERTEX
100
AcDbVertex
100
AcDb2dVertex
8
COFFR
10
109.265978
20
2.982323
30
0.0
0
VERTEX
100
AcDbVertex
100
AcDb2dVertex
8
COFFR
10
107.933212
20
2.980117
30
0.0
0
VERTEX
100
AcDbVertex
100
AcDb2dVertex
8
COFFR
10
106.600354
20
2.979017
30
0.0
0
VERTEX
100
AcDbVertex
100
AcDb2dVertex
8
COFFR
10
105.267532
20
2.979117
30
0.0
0
VERTEX
100
AcDbVertex
100
AcDb2dVertex
8
COFFR
10
103.935385
20
2.980311
30
0.0
0
VERTEX
100
AcDbVertex
100
AcDb2dVertex
8
COFFR
10
102.603145
20
2.98231
30
0.0
0
VERTEX
100
AcDbVertex
100
AcDb2dVertex
8
COFFR
10
101.270813
20
2.98483
30
0.0
0
VERTEX
100
AcDbVertex
100
AcDb2dVertex
8
COFFR
10
99.938371
20
2.98753
30
0.0
0
VERTEX
100
AcDbVertex
100
AcDb2dVertex
8
COFFR
10
98.605983
20
2.990577
30
0.0
0
VERTEX
100
AcDbVertex
100
AcDb2dVertex
8
COFFR
10
97.273626
20
2.99407
30
0.0
0
VERTEX
100
AcDbVertex
100
AcDb2dVertex
8
COFFR
10
95.941296
20
2.998089
30
0.0
0
VERTEX
100
AcDbVertex
100
AcDb2dVertex
8
COFFR
10
94.608968
20
3.002641
30
0.0
0
VERTEX
100
AcDbVertex
100
AcDb2dVertex
8
COFFR
10
93.276669
20
3.007816
30
0.0
0
VERTEX
100
AcDbVertex
100
AcDb2dVertex
8
COFFR
10
91.944377
20
3.013638
30
0.0
0
VERTEX
100
AcDbVertex
100
AcDb2dVertex
8
COFFR
10
90.612088
20
3.020113
30
0.0
0
VERTEX
100
AcDbVertex
100
AcDb2dVertex
8
COFFR
10
89.279757
20
3.027113
30
0.0
0
VERTEX
100
AcDbVertex
100
AcDb2dVertex
8
COFFR
10
87.947522
20
3.034932
30
0.0
0
VERTEX
100
AcDbVertex
100
AcDb2dVertex
8
COFFR
10
86.615338
20
3.043733
30
0.0
0
VERTEX
100
AcDbVertex
100
AcDb2dVertex
8
COFFR
10
85.283231
20
3.053751
30
0.0
0
VERTEX
100
AcDbVertex
100
AcDb2dVertex
8
COFFR
10
83.951156
20
3.065088
30
0.0
0
VERTEX
100
AcDbVertex
100
AcDb2dVertex
8
COFFR
10
82.618927
20
3.077265
30
0.0
0
VERTEX
100
AcDbVertex
100
AcDb2dVertex
8
COFFR
10
81.286496
20
3.089657
30
0.0
0
VERTEX
100
AcDbVertex
100
AcDb2dVertex
8
COFFR
10
79.95386
20
3.101626
30
0.0
0
VERTEX
100
AcDbVertex
100
AcDb2dVertex
8
COFFR
10
78.621045
20
3.112619
30
0.0
0
VERTEX
100
AcDbVertex
100
AcDb2dVertex
8
COFFR
10
77.288509
20
3.123499
30
0.0
0
VERTEX
100
AcDbVertex
100
AcDb2dVertex
8
COFFR
10
75.956294
20
3.135265
30
0.0
0
VERTEX
100
AcDbVertex
100
AcDb2dVertex
8
COFFR
10
74.624396
20
3.148896
30
0.0
0
VERTEX
100
AcDbVertex
100
AcDb2dVertex
8
COFFR
10
73.292686
20
3.164976
30
0.0
0
VERTEX
100
AcDbVertex
100
AcDb2dVertex
8
COFFR
10
71.961076
20
3.183815
30
0.0
0
VERTEX
100
AcDbVertex
100
AcDb2dVertex
8
COFFR
10
70.629467
20
3.205416
30
0.0
0
VERTEX
100
AcDbVertex
100
AcDb2dVertex
8
COFFR
10
69.297878
20
3.229843
30
0.0
0
VERTEX
100
AcDbVertex
100
AcDb2dVertex
8
COFFR
10
67.966142
20
3.25664
30
0.0
0
VERTEX
100
AcDbVertex
100
AcDb2dVertex
8
COFFR
10
66.63462
20
3.286468
30
0.0
0
VERTEX
100
AcDbVertex
100
AcDb2dVertex
8
COFFR
10
65.303163
20
3.319529
30
0.0
0
VERTEX
100
AcDbVertex
100
AcDb2dVertex
8
COFFR
10
63.971771
20
3.356024
30
0.0
0
VERTEX
100
AcDbVertex
100
AcDb2dVertex
8
COFFR
10
62.640271
20
3.395621
30
0.0
0
VERTEX
100
AcDbVertex
100
AcDb2dVertex
8
COFFR
10
61.308913
20
3.438757
30
0.0
0
VERTEX
100
AcDbVertex
100
AcDb2dVertex
8
COFFR
10
59.97754
20
3.485389
30
0.0
0
VERTEX
100
AcDbVertex
100
AcDb2dVertex
8
COFFR
10
58.646097
20
3.5353
30
0.0
0
VERTEX
100
AcDbVertex
100
AcDb2dVertex
8
COFFR
10
57.314365
20
3.587593
30
0.0
0
VERTEX
100
AcDbVertex
100
AcDb2dVertex
8
COFFR
10
55.983239
20
3.644143
30
0.0
0
VERTEX
100
AcDbVertex
100
AcDb2dVertex
8
COFFR
10
54.652515
20
3.706197
30
0.0
0
VERTEX
100
AcDbVertex
100
AcDb2dVertex
8
COFFR
10
53.322242
20
3.77515
30
0.0
0
VERTEX
100
AcDbVertex
100
AcDb2dVertex
8
COFFR
10
51.992092
20
3.85139
30
0.0
0
VERTEX
100
AcDbVertex
100
AcDb2dVertex
8
COFFR
10
50.661477
20
3.933476
30
0.0
0
VERTEX
100
AcDbVertex
100
AcDb2dVertex
8
COFFR
10
49.330048
20
4.01889
30
0.0
0
VERTEX
100
AcDbVertex
100
AcDb2dVertex
8
COFFR
10
47.997779
20
4.105027
30
0.0
0
VERTEX
100
AcDbVertex
100
AcDb2dVertex
8
COFFR
10
46.664677
20
4.189306
30
0.0
0
VERTEX
100
AcDbVertex
100
AcDb2dVertex
8
COFFR
10
45.332265
20
4.273852
30
0.0
0
VERTEX
100
AcDbVertex
100
AcDb2dVertex
8
COFFR
10
44.000536
20
4.360781
30
0.0
0
VERTEX
100
AcDbVertex
100
AcDb2dVertex
8
COFFR
10
42.66941
20
4.451966
30
0.0
0
VERTEX
100
AcDbVertex
100
AcDb2dVertex
8
COFFR
10
41.338621
20
4.548454
30
0.0
0
VERTEX
100
AcDbVertex
100
AcDb2dVertex
8
COFFR
10
40.007834
20
4.650252
30
0.0
0
VERTEX
100
AcDbVertex
100
AcDb2dVertex
8
COFFR
10
38.676773
20
4.756515
30
0.0
0
VERTEX
100
AcDbVertex
100
AcDb2dVertex
8
COFFR
10
37.34567
20
4.86711
30
0.0
0
VERTEX
100
AcDbVertex
100
AcDb2dVertex
8
COFFR
10
36.01448
20
4.981767
30
0.0
0
VERTEX
100
AcDbVertex
100
AcDb2dVertex
8
COFFR
10
34.682293
20
5.097407
30
0.0
0
VERTEX
100
AcDbVertex
100
AcDb2dVertex
8
COFFR
10
33.349036
20
5.210711
30
0.0
0
VERTEX
100
AcDbVertex
100
AcDb2dVertex
8
COFFR
10
32.015289
20
5.320155
30
0.0
0
VERTEX
100
AcDbVertex
100
AcDb2dVertex
8
COFFR
10
30.678441
20
5.41615
30
0.0
0
VERTEX
100
AcDbVertex
100
AcDb2dVertex
8
COFFR
10
29.34596
20
5.512156
30
0.0
0
VERTEX
100
AcDbVertex
100
AcDb2dVertex
8
COFFR
10
28.015354
20
5.614014
30
0.0
0
VERTEX
100
AcDbVertex
100
AcDb2dVertex
8
COFFR
10
26.686357
20
5.726715
30
0.0
0
VERTEX
100
AcDbVertex
100
AcDb2dVertex
8
COFFR
10
25.362772
20
5.866981
30
0.0
0
VERTEX
100
AcDbVertex
100
AcDb2dVertex
8
COFFR
10
24.034598
20
6.020716
30
0.0
0
VERTEX
100
AcDbVertex
100
AcDb2dVertex
8
COFFR
10
22.706543
20
6.188227
30
0.0
0
VERTEX
100
AcDbVertex
100
AcDb2dVertex
8
COFFR
10
21.378688
20
6.370137
30
0.0
0
VERTEX
100
AcDbVertex
100
AcDb2dVertex
8
COFFR
10
20.051749
20
6.569265
30
0.0
0
SEQEND
0
POLYLINE
5
 503
100
AcDbEntity
8
COFFR
66
 1
100
AcDb2dPolyline
70
 0
0
VERTEX
100
AcDbVertex
100
AcDb2dVertex
8
COFFR
10
510.3475
20
3.35784
30
0.0
0
VERTEX
100
AcDbVertex
100
AcDb2dVertex
8
COFFR
10
533.0
20
0.0
30
0.0
0
SEQEND
0
POLYLINE
5
 502
100
AcDbEntity
8
AXIS
66
 1
100
AcDb2dPolyline
70
 0
0
VERTEX
100
AcDbVertex
100
AcDb2dVertex
8
AXIS
10
112.000003
20
50.948468
30
0.0
0
VERTEX
100
AcDbVertex
100
AcDb2dVertex
8
AXIS
10
112.000003
20
-0.011055
30
0.0
0
SEQEND
0
POLYLINE
5
 503
100
AcDbEntity
8
LONG
66
 1
100
AcDb2dPolyline
70
 1
0
VERTEX
100
AcDbVertex
100
AcDb2dVertex
8
LONG
10
108.000003
20
47.948468
30
0.0
0
VERTEX
100
AcDbVertex
100
AcDb2dVertex
8
LONG
10
116.000005
20
47.948468
30
0.0
0
VERTEX
100
AcDbVertex
100
AcDb2dVertex
8
LONG
10
116.000005
20
34.948468
30
0.0
0
VERTEX
100
AcDbVertex
100
AcDb2dVertex
8
LONG
10
108.000005
20
34.948468
30
0.0
0
SEQEND
0
POLYLINE
5
 503
100
AcDbEntity
8
LONG
66
 1
100
AcDb2dPolyline
70
 1
0
VERTEX
100
AcDbVertex
100
AcDb2dVertex
8
LONG
10
108.000003
20
2.988945
30
0.0
0
VERTEX
100
AcDbVertex
100
AcDb2dVertex
8
LONG
10
116.000005
20
2.988945
30
0.0
0
VERTEX
100
AcDbVertex
100
AcDb2dVertex
8
LONG
10
116.000005
20
15.988945
30
0.0
0
VERTEX
100
AcDbVertex
100
AcDb2dVertex
8
LONG
10
108.000005
20
15.988945
30
0.0
0
SEQEND
0
POLYLINE
5
 502
100
AcDbEntity
8
AXIS
66
 1
100
AcDb2dPolyline
70
 0
0
VERTEX
100
AcDbVertex
100
AcDb2dVertex
8
AXIS
10
324.999994
20
38.927805
30
0.0
0
VERTEX
100
AcDbVertex
100
AcDb2dVertex
8
AXIS
10
324.999994
20
1.343
30
0.0
0
SEQEND
0
POLYLINE
5
 503
100
AcDbEntity
8
LONG
66
 1
100
AcDb2dPolyline
70
 1
0
VERTEX
100
AcDbVertex
100
AcDb2dVertex
8
LONG
10
320.999994
20
35.927805
30
0.0
0
VERTEX
100
AcDbVertex
100
AcDb2dVertex
8
LONG
10
328.999996
20
35.927805
30
0.0
0
VERTEX
100
AcDbVertex
100
AcDb2dVertex
8
LONG
10
328.999996
20
22.927805
30
0.0
0
VERTEX
100
AcDbVertex
100
AcDb2dVertex
8
LONG
10
320.999996
20
22.927805
30
0.0
0
SEQEND
0
POLYLINE
5
 503
100
AcDbEntity
8
LONG
66
 1
100
AcDb2dPolyline
70
 1
0
VERTEX
100
AcDbVertex
100
AcDb2dVertex
8
LONG
10
320.999994
20
4.343
30
0.0
0
VERTEX
100
AcDbVertex
100
AcDb2dVertex
8
LONG
10
328.999996
20
4.343
30
0.0
0
VERTEX
100
AcDbVertex
100
AcDb2dVertex
8
LONG
10
328.999996
20
17.343
30
0.0
0
VERTEX
100
AcDbVertex
100
AcDb2dVertex
8
LONG
10
320.999996
20
17.343
30
0.0
0
SEQEND
0
POLYLINE
5
 502
100
AcDbEntity
8
AXIS
66
 1
100
AcDb2dPolyline
70
 0
0
VERTEX
100
AcDbVertex
100
AcDb2dVertex
8
AXIS
10
393.999999
20
28.056255
30
0.0
0
VERTEX
100
AcDbVertex
100
AcDb2dVertex
8
AXIS
10
393.999999
20
1.258094
30
0.0
0
SEQEND
0
POLYLINE
5
 503
100
AcDbEntity
8
LONG
66
 1
100
AcDb2dPolyline
70
 1
0
VERTEX
100
AcDbVertex
100
AcDb2dVertex
8
LONG
10
390.999999
20
25.056255
30
0.0
0
VERTEX
100
AcDbVertex
100
AcDb2dVertex
8
LONG
10
397.000001
20
25.056255
30
0.0
0
VERTEX
100
AcDbVertex
100
AcDb2dVertex
8
LONG
10
397.000001
20
3.056255
30
0.0
0
VERTEX
100
AcDbVertex
100
AcDb2dVertex
8
LONG
10
391.000001
20
3.056255
30
0.0
0
SEQEND
0
CIRCLE
5
 504
100
AcDbEntity
8
TROU
100
AcDbCircle
39
 0
10
65.000002
20
22.648062
30
0.0
40
11.0
0
POLYLINE
5
 502
100
AcDbEntity
8
AXIS
66
 1
100
AcDb2dPolyline
70
 0
0
VERTEX
100
AcDbVertex
100
AcDb2dVertex
8
AXIS
10
54.000002
20
22.648062
30
0.0
0
VERTEX
100
AcDbVertex
100
AcDb2dVertex
8
AXIS
10
75.999996
20
22.648062
30
0.0
0
SEQEND
0
POLYLINE
5
 502
100
AcDbEntity
8
AXIS
66
 1
100
AcDb2dPolyline
70
 0
0
VERTEX
100
AcDbVertex
100
AcDb2dVertex
8
AXIS
10
65.000002
20
17.148062
30
0.0
0
VERTEX
100
AcDbVertex
100
AcDb2dVertex
8
AXIS
10
65.000002
20
28.148062
30
0.0
0
SEQEND
0
CIRCLE
5
 504
100
AcDbEntity
8
TROU
100
AcDbCircle
39
 0
10
212.999996
20
25.700294
30
0.0
40
12.5
0
POLYLINE
5
 502
100
AcDbEntity
8
AXIS
66
 1
100
AcDb2dPolyline
70
 0
0
VERTEX
100
AcDbVertex
100
AcDb2dVertex
8
AXIS
10
200.499996
20
25.700294
30
0.0
0
VERTEX
100
AcDbVertex
100
AcDb2dVertex
8
AXIS
10
225.500006
20
25.700294
30
0.0
0
SEQEND
0
POLYLINE
5
 502
100
AcDbEntity
8
AXIS
66
 1
100
AcDb2dPolyline
70
 0
0
VERTEX
100
AcDbVertex
100
AcDb2dVertex
8
AXIS
10
212.999996
20
19.450294
30
0.0
0
VERTEX
100
AcDbVertex
100
AcDb2dVertex
8
AXIS
10
212.999996
20
31.950294
30
0.0
0
SEQEND
0
CIRCLE
5
 504
100
AcDbEntity
8
TROU
100
AcDbCircle
39
 0
10
275.000002
20
23.190551
30
0.0
40
10.0
0
POLYLINE
5
 502
100
AcDbEntity
8
AXIS
66
 1
100
AcDb2dPolyline
70
 0
0
VERTEX
100
AcDbVertex
100
AcDb2dVertex
8
AXIS
10
265.000002
20
23.190551
30
0.0
0
VERTEX
100
AcDbVertex
100
AcDb2dVertex
8
AXIS
10
285.000007
20
23.190551
30
0.0
0
SEQEND
0
POLYLINE
5
 502
100
AcDbEntity
8
AXIS
66
 1
100
AcDb2dPolyline
70
 0
0
VERTEX
100
AcDbVertex
100
AcDb2dVertex
8
AXIS
10
275.000002
20
18.190551
30
0.0
0
VERTEX
100
AcDbVertex
100
AcDb2dVertex
8
AXIS
10
275.000002
20
28.190551
30
0.0
0
SEQEND
0
CIRCLE
5
 504
100
AcDbEntity
8
TROU
100
AcDbCircle
39
 0
10
149.999987
20
26.183518
30
0.0
40
12.5
0
POLYLINE
5
 502
100
AcDbEntity
8
AXIS
66
 1
100
AcDb2dPolyline
70
 0
0
VERTEX
100
AcDbVertex
100
AcDb2dVertex
8
AXIS
10
137.499987
20
26.183518
30
0.0
0
VERTEX
100
AcDbVertex
100
AcDb2dVertex
8
AXIS
10
162.500018
20
26.183518
30
0.0
0
SEQEND
0
POLYLINE
5
 502
100
AcDbEntity
8
AXIS
66
 1
100
AcDb2dPolyline
70
 0
0
VERTEX
100
AcDbVertex
100
AcDb2dVertex
8
AXIS
10
149.999987
20
19.933518
30
0.0
0
VERTEX
100
AcDbVertex
100
AcDb2dVertex
8
AXIS
10
149.999987
20
32.433518
30
0.0
0
SEQEND
0
ENDSEC
0
EOF
